Cifra Club

Alive

P.O.D

Cifra: Principal (violão e guitarra)
Selo Cifra Club: esta cifra foi revisada para atender aos critérios oficiais da nossa Equipe de Qualidade.
tom: F
Intro / Verso:
E|----------------------------------------------------|
B|----------------------------------------------------|
G|----------------------------------------------------|   (5x)
D|----------------------------------------------3-3-3-|
A|-5-5-5-3-5--5-5-5-5--8-8-8-8-8-8-8---8-8-8-8--3-3-3-|
E|-5-5-5-3-5--3-3-3-3--6-6-6-6-6-6-6---6-6-6-6--------|

E|--------------------------------------------------|
B|--------------------------------------------------|
G|--------------------------------------------------|
D|----------------------------------------5-5-----5-|
A|-5-5-5-3-5--5-5-5-5--8-8-8-8-8-8-8--3-3-3-3-3-3-3-|
E|-5-5-5-3-5--3-3-3-3--6-6-6-6-6-6-6--3-3-----3-3---|

Refrão:
E|------------------------------------------------|
B|------------------------------------------------|
G|--3-------5-------------------------------------|
D|--3-------5---------------3--------3------------|
A|--1-------3-------5-------3-----3--3------------|
E|------------------5-------1-----3--1------------|
    I...feel so...alive...time...can't deny you...

E|--------------------------------------------------|
B|--------------------------------------------------|
G|--3-------5---------------------------------------|
D|--3-------5---------------3----------3------------|
A|--1-------3-------5-------3-----3----3------------|
E|------------------5-------1-----3----1------------|
    I...feel so...alive...time...think i can fly...

E|-----------------
B|-----------------
G|-----------------
D|--3-2-0-2--0-----
A|-------------3/5-
E|-----------------

Ponte:
E|----------------------------------
B|----------------------------------
G|----------------------------------   (8x)
D|----------------------------------
A|--5~~~~-8-7------8~~~~------------
E|------------8~~~~-----8~~~~-------

A|-12h13-12-12h13-12-12h13-12-12h13...
B|------------------------------------
G|------------------------------------   (2x)
D|------------------------------------
A|------------------------------------
E|------------------------------------

Outro:
E|-----------------
B|-----------------
G|-----------------   (4x)
D|--22202--220202--
A|--22202--220202--
E|--22202--220202--

Letra
Everyday is a new day
I'm thankful for every breath I take
I won't take it for granted ( I won't take it for granted)
So I learn from my mistakes
It's beyond my control sometimes it's best to let go,
whatever happens in this lifetime
So I trust in love ( So I trust in love )
You have given me peace of mind

I, I feel so alive
For the very first time
I can't deny you
I feel so alive
I, I feel so alive ( so alive)
For the very first time( For the very first time)
And I think I can fly

Sunshine upon my face (Sunshine upon my face)
A new song for me to sing
Tell the world how I feel inside
Even though it might cost me everything
Now that I know this is beyond my control
'cause I could never turn my back away
Now that I see you (Now that I see you)
I can never look away

I, I feel so alive
For the very first time
I can't deny you
I feel so alive
I, I feel so alive ( so alive)
For the very first time (For the very first time)
And I think I can fly

Now that I know you
I could never turn my back away
And now that I see you
I could never look away
And now that I know you
I could never turn my back away
And now that I see you
I believe no matter what they say

I, I feel so alive
For the very first time
I can't deny you
I feel so alive
I, I feel so alive(so alive)
For the very first time(For the very first time)
And I think I can fly
I, I feel so alive (so alive)
For the very first time(For the very first time)
And I think I can fly
I, I feel so alive ( so alive)
For the very first time(For the very first time)
And I think I can fly
And I think I can fly
And I think I can fly
Outros vídeos desta música
    164.929 exibições
      • ½ Tom
      • A
      • Bb
      • B
      • C
      • Db
      • D
      • Eb
      • E
      • F
      • F#
      • G
      • Ab
    • Adicionar à lista

    Afinação da cifra

    Afinador online

      0 comentários

      Ver todos os comentários

      Entre para o Cifra Club PRO

      Tenha acesso a benefícios exclusivos no App e no Site

      • Chega de anúncios

      • Badges exclusivas

      • Mais recursos no app do Afinador

      • Atendimento Prioritário

      • Aumente seu limite de lista

      • Ajude a produzir mais conteúdo

      Cifra Club Pro

      Aproveite o Cifra Club com benefícios exclusivos e sem anúncios
      Cifra Club Pro
      Aproveite o Cifra Club com benefícios exclusivos e sem anúncios
      Ops (: Contenido disponible sólo en portugués.
      OK