Cifra Club

Aprenda

Outkast

P.O.D

Cifra: Principal (violão e guitarra)
tom: E
Dropped D tuning 

Intro & Chorus: (The Intro part is really just the low D being played.) 
E|-------------------------------------------------------------------- 
B|-------------------------------------------------------------------- 
G|-------------------------------------------------------------------- 
D|-0-0-0-0-0-0-0-0-0-0-0-0-0-0-0-0--2-2-3-3-10-10-10-10- 
A|-0-0-0-0-0-0-0-0-0-0-0-0-0-0-0-0--2-2-3-3-10-10-10-10- 
E|-0-0-0-0-0-0-0-0-0-0-0-0-0-0-0-0--2-2-3-3-10-10-10-10- 

Verse: 4x 
E|------------------------------------------------------------------- 
B|------------------------------------------------------------------ 
G|----7------7------7-------7------7------7--9-9-9-9h10p9-7- 
D|------------------------------------------------------------------ 
A|------------------------------------------------------------------ 
E|-0------0------0------0------0------0-------------------------- 

Bridge: 8x ("Brother take my hand…") 
E|---------------------- 
B|---------------------- 
G|--------------------- 
D|-0~--4/3/4/3/1-1- 
A|-0~--4/3/4/3/1-1- 
E|-0~--4/3/4/3/1-1- 

(Verse) 
(Bridge) 

Chorus Variation: 4x 
E|-------------------------------------- 
B|------------(-3/5-)-8--------------- 
G|------8-7-------------5-7-8b-7-5- 
D|--0---------------------------------- 
A|-------------------------------------- 
E|-(0)---------------------------------- 

(Chorus) 

The Verse is the Outro ("Brace yourself like a man…"). Once Sonny is done singing, just go crazy.

Chase
Composição de P.O.D
Colaboração e revisão:
  • Lucas Perez
1.842 exibições
    • ½ Tom
    • A
    • Bb
    • B
    • C
    • Db
    • D
    • Eb
    • E
    • F
    • F#
    • G
    • Ab
  • Adicionar à lista

    0 comentários

    Ver todos os comentários

    Conseguiu tocar?

    0 Tocaram 0 Ainda não

    Grave um vídeo tocando Outkast e nos envie!

    00:00 / 00:00
    outros vídeos desta música
    repetir qualidade Automático
    Outros vídeos desta música
    00:00 / 00:00
    Automático

    Cifra Club Pro

    Aproveite o Cifra Club com benefícios exclusivos e sem anúncios
    Cifra Club Pro
    Aproveite o Cifra Club com benefícios exclusivos e sem anúncios
    OK