Cifra Club

Set it Off

P.O.D

Cifra: Principal (violão e guitarra)
Selo Cifra Club: esta cifra foi revisada para atender aos critérios oficiais da nossa Equipe de Qualidade.
tom: C
Album: Satellite
Tuning: drop D
Abbreviations: v=vibrato /=slide x=muffled 

Intro-distorted
E|----------------------------------------------------------------
B|----------------------------------------------------------------
G|-7-7-7-7-7-----7-7-7-7-7----------------------------------------
D|-7-7-7-7-7-----7-7-7-7-7--------3-3-3-3-5-5-5-5-2-2-2-2-3-3-3-3-
A|-5-5-5-5-5-----5-5-5-5-5--------3-3-3-3-5-5-5-5-2-2-2-2-3-3-3-3-
D|--------------0-----------0-----3-3-3-3-5-5-5-5-2-2-2-2-3-3-3-3-

Verse Part.1 (play 4 times and) -clean, chorus, slight delay
E|--------------0---------------------8-------------8-----------------
B|---------6------------------------------6------------6--------------
G|-----7-------------------------------------7-------------7----------
D|-5-------------------------------------------------------------------
A|----------------------------------------------------------------------
D|----------------------------------------------------------------------

Verse Part.2 (play 4 times)-same effects as Part.1
E|----------------------0-------------0---------------0---------
B|--------------6------------------------6---------------6------
G|---------7--------------------------------7---------------7---
D|-----7---------------------------------------------------------
A|-5-------------------------------------------------------------
D|---------------------------------------------------------------

Pre-chorus (play twice)
E|-------------------------------------------------------------
B|-------------------------------------------------------------
G|-------------------------------------------------------------
D|-------0-----------------------------------0----------0------
A|----0-----------0-------0-------0-----0-----0----------0-----
D-0----------1-------3--------5----7--------------7-----------

Chorus(distorted)
E|------------------------------------------------------------------------------------------------
B|------------------------------------------------------------------------------------------------
G|-----------------------------------------------------------------------------9--9--9------------
D|-0----1/3----0------0----1/3-----0-----0-----1/3-----0-----0------1/3---0----x--x--x------------
A|-0----1/3----0------0----1/3-----0-----0-----1/3-----0-----0------1/3---0----7--7--7------------
D|-0----1/3----0------0----1/3-----0-----0-----1/3-----0-----0------1/3---0-----------------------


Solo(distorted)
E|-----------------------------------------------------------------------------------------
B|-----------------------------------------------------------------------------------------
G|-----------------------------------------------------------------------------------------
D|-----------------------------------------------------------------------------------------
A|-5-5-5-5-5-5v--5-5-5-5-5-5v---7-8-7/8/7-3----7/8-----7/8-----7/8-5v--7-8-7/8/7-3-------0-
D|-------------------------------------------------10------10------------------------------

E|--13b---12b-12b-----------------
B|--16b---15b-15b--------13b------
G|---------------------------15b--
D|--------------------------------
A|--------------------------------
D|--------------------------------

Bridge thingy-distorted
E|-----------------------------------------------------------------------------------------------
B|-----------------------------------------------------------------------------------------------
G|--------------------------------------------------9-9-9---9-9-9--------------------------------
D|-0---1---3---5---7-7-7---7-7-7----0---1---3---5---x-x-x---x-x-x--------------------------------
A|-0---1---3---5---7-7-7---7-7-7----0---1---3---5---7-7-7---7-7-7--------------------------------
D|-0---1---3---5---7-7-7---7-7-7----0---1---3---5------------------------------------------------

After solo/bridge thingy (clean)
E|--------------------------------------------------------------------------------------------------
B|--------------------------------------------------------------------------------------------------
G|--------------------------------------------------------------------------------------------------
D|--------------------------------------------------------------------------------------------------
A|-0---1/3---0---0---1/3---0---0---1/3---0----0---1/3---0-------------------------------------------
D|-0---1/3---0---0---1/3---0---0---1/3---0----0---1/3---0-------------------------------------------
Outros vídeos desta música
    4.918 exibições
      • ½ Tom
      • A
      • Bb
      • B
      • C
      • Db
      • D
      • Eb
      • E
      • F
      • F#
      • G
      • Ab
    • Adicionar à lista

    Afinação da cifra

    Afinador online

      0 comentários

      Ver todos os comentários

      Entre para o Cifra Club PRO

      Tenha acesso a benefícios exclusivos no App e no Site

      • Chega de anúncios

      • Badges exclusivas

      • Mais recursos no app do Afinador

      • Atendimento Prioritário

      • Aumente seu limite de lista

      • Ajude a produzir mais conteúdo

      Cifra Club Pro

      Aproveite o Cifra Club com benefícios exclusivos e sem anúncios
      Cifra Club Pro
      Aproveite o Cifra Club com benefícios exclusivos e sem anúncios
      Ops (: Contenido disponible sólo en portugués.
      OK