Cifra Club

Aprenda

Southtown

P.O.D

Cifra: Principal (violão e guitarra)
Tom: F
 Afinação: D,G,C,F,A,D.

 Intro:
 D|----------------------------------------------------------------|
 A|----------------------------------------------------------------|
 F|----------------------------------------------------------------|
 C|-----4-4-4-4--4-4-4-4-4-4-4-4-4-4--4-4-4-4--2-2-2-2-2-2-2-2-2-2-|4X  
 G|-----2-2-2-2--2-2-2-2-2-2-2-2-2-2--2-2-2-2--2-2-2-2-2-2-2-2-2-2-|  
 D|--------------3-3-3-3-3-3-3-3-3-3-----------2-2-2-2-2-2-2-2-2-2-|

RIFF1
 D|----------------------------------------------------------------|
 A|----------------------------------------------------------------|
 F|----------------------------------------------------------------|
 C|----4--5-5-5-x-5-5-5-5--4-4-4--2-2-2-x-2-2-2-2------------------|
 G|----2--5-5-5-x-5-5-5-5--2-2-2--2-2-2-x-2-2-2-2------------------|
 D|-------3-3-3-x-3-3-3-3---------2-2-2-x-2-2-2-2------------------|

PRÉ-REFRÃO:
 D|------------|
 A|------------|
 F|------------|
 C|-----5--4---|
 G|--7---------|
 D|------------|


REFRÃO:

 D|----------------------------------------------------------------|
 A|----------------------------------------------------------------|
 F|----------------------------------------------------------------|
 C|--5-5-5--7777--5-5-5--7777--2-2-2--4444--2-2-2------------------|
 G|--5-5-5--------5-5-5--------2-2-2--------2-2-2------------------|
 D|--3-3-3--------3-3-3--------2-2-2--------2-2-2------------------|

REPETE O RIFF1



 D|---------------------|
 A|---------------------|
 F|---------------------|
 C|---------------------|8X
 G|---9-10---9-10-------|
 D|--0-----0-----0------|


 D|----------------------------|
 A|----------------------------|
 F|-7--9--10--7--9--10--x-x--x-|
 C|-7--9--10--7--9--10--x-x--x-|
 G|-5--7--8---5--7--8---x-x--x-|
 D|----------------------------|

REPETE O RIFF1 E DEPOIS O REFRÃO

NO FINAL FAÇA ISSO



 D|--------------------------------------------------|
 A|--------------------------------------------------| 
 F|-------------------4-4-4b-------------------------|
 C|--5-5-5-x-5-5-5-5--4-4-4b--2-2-2-x-2-2-2-2--------|
 G|--5-5-5-x-5-5-5-5--2-2-2b--2-2-2-x-2-2-2-2--------|
 D|--3-3-3-x-3-3-3-3----------2-2-2-x-2-2-2-2--------|
Composição de P.O.D
15.885 exibições
    • ½ Tom
    • A
    • Bb
    • B
    • C
    • Db
    • D
    • Eb
    • E
    • F
    • F#
    • G
    • Ab
  • Adicionar à lista

    0 comentários

    Mostrar mais comentários

    Conseguiu tocar?

    2 Tocaram 0 Ainda não

    Grave um vídeo tocando Southtown e mande pra gente!

    00:00 / 00:00
    outros vídeos desta música
    repetir qualidade Automático
    Outros vídeos desta música
    00:00 / 00:00
    Automático

    Cifra Club Pro

    Aproveite o Cifra Club com benefícios exclusivos e sem anúncios
    7 dias grátis
    Cifra Club Pro
    Aproveite o Cifra Club com benefícios exclusivos e sem anúncios
    7 dias grátis
    OK