Cifra Club

Aprenda

Will You

P.O.D

Cifra: Principal (violão e guitarra)
tom: C
Intro:
E|--------------------------------------------------------------------
B|--------------------------------------------------------------------
G|--9999-12121212--------------------------------------555---4--------    (2x)
D|--xxxx-x x x x -----------------------------------------------5--0--
A|--7777 10101010 7-7-7-7----10101010-----8888-----5------------------
D|--0000-0-0-0-0-10101010----10101010-----8888-----5------------------

Verso 1:
E|--------------------------------------------------------------------
B|--------------------------------------------------------------------
G|--------------------------------------------------------------------    (4x)
D|-0000-------------------------------7777--3333------5555----------------
A|-0000---5--7-8--8888--5--7-8---5555------------5555------------------
D|-0000-----------8888-----------5555------------5555------------------

Refrão:
E|--------------------------------------------------------------------
B|--------------------------------------------------------------------
G|--9999-12121212--------------------------------------555---4--------    (2x)
D|--xxxx-x x x x -----------------------------------------------5--0--
A|--7777 10101010 7-7-7-7----10101010-----8888-----5------------------
D|--0000-0-0-0-0-10101010----10101010-----8888-----5------------------

Verso 2:
E|--------------------------------------------------------------------
B|--------------------------------------------------------------------
G|-----------------------------------55555--4--------0000---2---------    (4x)
D|-0000---5--7-8--------5--7-8----------------------------------------
A|-0000-----------8888-----------5555-----------5555------------------
D|-0000-----------8888-----------5555-----------5555------------------

Refrão 2:
E|--------------------------------------------------------------------
B|--------------------------------------------------------------------
G|--9999-12121212--------------------------------------555---4--------    (4x)
D|--xxxx-x x x x -----------------------------------------------5--0--
A|--7777 10101010 7-7-7-7----10101010-----8888-----5------------------
D|--0000-0-0-0-0-10101010----10101010-----8888-----5------------------

Refrão:
E|-------------------000------------------------------------------
B|-------------------666-----555-6--------------------------------
G|-----------8888----777-----555---555----4/5--4------------------
D|-1111------8888----777-----555---555--5-------------------------
A|-1111------6666-------------------------------------------------
E|-1111-----------------------------------------------------------

E|--------------------------------------------------------------------
B|-6666---5555----1111------------------------------------------------
G|-7777---5555----3333------------------------------------------------
D|-7777---5555----3333----5555----------------------------------------    (2x)
A|-5555---3333----1111----5555----------------------------------------
E|------------------------5555----------------------------------------

E|--------------------------------------------------------------------
B|--------------------------------------------------------------------
G|--9999-12121212-----------------------------------------------------    (2x)
D|--xxxx-x x x x -----------------------------------------------------
A|--7777 10101010 7-7-7-7----10101010-----8888-----5------------------
D|--0000-0-0-0-0-10101010----10101010-----8888-----5------------------

Riff:
E|-------------------------------------------------------------------
B|-------------------------------------------------------------------
G|-------------------------------------------55555--4444-0000--------
D|---------------------------------------5---------------------------
A|-7-8--7-8-----7--8---7--8---7-8--7-8---5---------------------------
D|-0-0--0-0----10-10--10-10---8-8--8-8---5---------------------------

E|--------------------------------------------------------------------
B|--------------------------------------------------------------------
G|-------------------------------------------5-4------5-4-9-----------
D|---------------------------------------5-------5--------x-----------
A|-7-8--7-8-----7--8---7--8---7-8--7-8---5-------5--------7-----------
D|-0-0--0-0----10-10--10-10---8-8--8-8---5-------5--------0-----------
Composição de P.O.D.
Colaboração e revisão:
  • Rafael S.A
  • Bruno khael
  • andre almeida
20.874 exibições
    • ½ Tom
    • A
    • Bb
    • B
    • C
    • Db
    • D
    • Eb
    • E
    • F
    • F#
    • G
    • Ab
  • Adicionar à lista

    0 comentários

    Ver todos os comentários

    Conseguiu tocar?

    2 Tocaram 0 Ainda não

    Grave um vídeo tocando Will You e nos envie!

    00:00 / 00:00
    outros vídeos desta música
    repetir qualidade Automático
    Outros vídeos desta música
    00:00 / 00:00
    Automático

    Cifra Club Pro

    Aproveite o Cifra Club com benefícios exclusivos e sem anúncios
    Cifra Club Pro
    Aproveite o Cifra Club com benefícios exclusivos e sem anúncios
    OK