Cifra Club

Aprenda

Torn

Poison The Well

Cifra: Principal (violão e guitarra)
tom: Db
intro

riff 1
guit 1 - limpa
d|-------------------------------------------------------|
a|-------------------------------------------------------|  
f|-------------------------------------------------------|   
c|-------10----10-------11-------10-------10-----10---10-----11-----10----10---|   
g|----11-------------11-------11-------11------8-----------8------8------8-----|   
c|-11-------11----11-------11-------11-------8------8----8------8------8-----8-| 

riff 2
guit 2 - com distorçao

d|-------------------------------------------------------|
a|-------------------------------------------------------|  
f|-13/---------15----10/-----------------------------------------|   
c|-------------------------------------------------------|   
g|-11/---------13----8/-----------------------------------------|   
c|-------------------------------------------------------| 

riff 3
d|-------------------------------------------------------|
a|-------------------------------------------------------|  
f|-------------------------------------------------------|   
c|-------------------------------------------------------|   
g|-11-11----11-11---11-11-8-8---8-8---8-8-11-11----------|   
c|-11-11----11-11---11-11-8-8---8-8---8-8-11-11----------| 

riff 4
as 2 guitarras juntas

d|-------------------------------------------------------|
a|-------------------------------------------------------|  
f|-6-6-6-6-6-6-6-6-------------------------------------------------------------|   
c|-6-6-6-6-6-6-6-6-3---3--3-3-----5-6-8-6-5-----3---3--3-3-----5-6-8-6-5-------|   
g|-4-4-4-4-4-4-4-4-3---3--3-3---8---------------3---3--3-3---8-----------------|   
c|-----------------3---3--3-3-------------------3---3--3-3---------------------|

riff 5 
d|-------------------------------------------------------|
a|-------------------------------------------------------|  
f|-------------------------------6-6-6-6-6-8-8-8-8----------------|   
c|-3-3--3-3--3-3--3-3---5-6-8-6--6-6-6-6-6-8-8-8-8-----------------------------|   
g|-3-3--3-3--3-3--3-3------------4-4-4-4-4/6-6-6-6-------------------------|   
c|-3-3--3-3--3-3--3-3--------------------------------------------|  

riff 6 
d|-------------------------------------------------------|
a|-------------------------------------------------------|  
f|-----------------------------6-6-6-8-8-8--------------6-6-6-8-8-8----------------------|   
c|-----------------------------6-6-6-8-8-8--------------6-6-6-8-8-8----------------------|   
g|-3-3-3-3--3-3-3--3-3-3--3-3--4-4-4-6-6-6--------------4-4-4-6-6-6---3-3-3--3-3-3--3-3-3---|   
c|-3-3-3-3--3-3-3--3-3-3--3-3---------------3-3-3-3-3-3---------------3-3-3--3-3-3--3-3-3------|

ordem:
riff 1  6x
riff 2  2x
riff 3  4x
riff 4  6x
riff 5  4x
riff 2  4x
riff 4  4x
riff 6  4x 

akele abraço pra galera da mesinha, do Sta Maria. Soul Blind na veia...
Colaboração e revisão:
  • Rafael Dutra
1.399 exibições
    • ½ Tom
    • A
    • Bb
    • B
    • C
    • Db
    • D
    • Eb
    • E
    • F
    • F#
    • G
    • Ab
  • Adicionar à lista

    0 comentários

    Ver todos os comentários

    Conseguiu tocar?

    0 Tocaram 0 Ainda não

    Grave um vídeo tocando Torn e nos envie!

    00:00 / 00:00
    outros vídeos desta música
    repetir qualidade Automático
    Outros vídeos desta música
    00:00 / 00:00
    Automático

    Cifra Club Pro

    Aproveite o Cifra Club com benefícios exclusivos e sem anúncios
    Cifra Club Pro
    Aproveite o Cifra Club com benefícios exclusivos e sem anúncios
    OK