Cifra Club

Pokémon Red - Intro

Pokémon

Cifra: Principal (violão e guitarra)
tom: G
E|-----------------------------------------
B|----------8~-7-6-------------------------
G|---7-9-----------9--7~-6-5---------------
D|-9-------------------------9---7---7-----
A|---------------------------------9-------
E|-----------------------------------------

E|----------------7-------6-7-----6-7-9---------7-6-7-9------------
B|--------7-6-7-9---9---9-----77---------77777----------77777------
G|---7-9-----------------------------------------------------------
D|-9---------------------------------------------------------------
A|-----------------------------------------------------------------
E|-----------------------------------------------------------------

00:00 / 00:00
Outros vídeos desta música
Repetir
Outros vídeos desta música
Compositor não encontrado.
Colaboração e revisão:
  • Gui Mao
15.593 exibições
    • ½ Tom
    • A
    • Bb
    • B
    • C
    • Db
    • D
    • Eb
    • E
    • F
    • F#
    • G
    • Ab
  • Adicionar à lista

    0 comentários

    Ver todos os comentários

    Conseguiu tocar?

    2 Tocaram 2 Ainda não

    Grave um vídeo tocando Pokémon Red - Intro e nos envie!

    Entre para oCifra Club PRO

    Tenha acesso a benefícios exclusivos no App e no Site

    • Chega de anúncios

    • Prioridade de compra em lançamentos

    • Mais recursos no app do Afinador

    • Atendimento Prioritário

    • Descontos nos produtos Cifra Club

    • Ajude a produzir mais conteúdo

    00:00 / 00:00

    Cifra Club Pro

    Aproveite o Cifra Club com benefícios exclusivos e sem anúncios
    Cifra Club Pro
    Aproveite o Cifra Club com benefícios exclusivos e sem anúncios
    OK