Cifra Club

Aprenda

Árvore do Reggae

Ponto De Equilibrio

Tab de baixo: Principal
riff-1
g|------------------------------------|
d|------------------------------------|
a|-------9-7---------9-7--------------|
e|-2-5-7-----9-77--7-----9-7-5--0-3-5-|

riff-2
g|------------------------------------|
d|------------------------------------|
a|---9-7---------9-7------------------|
e|-7-----9-77--7-----9-7-5--0-3-5-----|

variação principal
g|----------------|
d|----------------|
a|----------------|
e|--7-7-7-5-7-----|

*ae pessoal tem mais algumas variações em cima dessas notas,
 então vai da sua criatividade.

_______________________________________________________
Contribuição: Guilherme Tavares(guilhermetavares@hotmail.com)
Composição de Lucas Kastrup Rehen
Colaboração e revisão:
  • Renan Monteiro
23.210 exibições

0 comentários

Ver todos os comentários

Conseguiu tocar?

5 Tocaram 0 Ainda não

Grave um vídeo tocando Árvore do Reggae e nos envie!

00:00 / 00:00
outros vídeos desta música
repetir qualidade Automático
Outros vídeos desta música
00:00 / 00:00
Automático

Cifra Club Pro

Aproveite o Cifra Club com benefícios exclusivos e sem anúncios
Cifra Club Pro
Aproveite o Cifra Club com benefícios exclusivos e sem anúncios
OK