Cifra Club

Coisa Feia

Ponto De Equilibrio

Cifra: Principal
exibições 366.946
Tom: D
Intro: 
    
    Em     (↓ ↑ ↓ ↑)                                                       (↓↑↑↓↑↑)
E|-6/7--7-x-x-x--7-x-x-x-7-x-x-x-7-x-x-x--6/7--7-x-x-x--7-x-x-x--7-x-x-x-7-7-7-7-7-7-7-7-7-10-10-10-10-10-10-10-10-10-
B|-7/8--8-x-x-x--8-x-x-x-8-x-x-x-8-x-x-x--7/8--8-x-x-x--8-x-x-x--8-x-x-x-8-8-8-8-8-8-8-8-8--8--8--8--8--8--8--8--8--8-
G|-8/9--9-x-x-x--9-x-x-x-9-x-x-x-9-x-x-x--8/9--9-x-x-x--9-x-x-x--9-x-x-x-9-9-9-9-9-9-9-9-9--9--9--9--9--9--9--9--9--9-
D|--------------------------------------------------------------------------------------------------------------------
A|--------------------------------------------------------------------------------------------------------------------
E|--------------------------------------------------------------------------------------------------------------------

    D
       (↓ ↑ ↓ ↑)                    (↓↑↑↓↑↑)
E|--5--5-x-x-x--5-x-x-x--5-x-x-x--5-5-5-5-5-5--7-7-7-7-7-7-7-7-7-------------
B|--7--7-x-x-x--7-x-x-x--7-x-x-x--7-7-7-7-7-7--7-7-7-7-7-7-7-7-7-------------
G|--7--7-x-x-x--7-x-x-x--7-x-x-x--7-7-7-7-7-7--7-7-7-7-7-7-7-7-7-------------
D|---------------------------------------------------------------------------
A|---------------------------------------------------------------------------
E|---------------------------------------------------------------------------


Em
Isso é coisa, coisa. Mas isso é coisa.

Isso é coisa. Isso é coisa.
D
Seu assunto principal é falar mal.
Em
Onde você vai chegar assim? aonde vai?

Onde você vai chegar assim?
D
Seu assunto principal, é falar mal da vida alheia,
Em
Mas isso é coisa feia; Isso é coisa feia.
D
(Antes) Antes, de julgar mal
Em
Por que não olha si mesmo.
                D
Verá que está cometendo maior (maior)
Em
ou mesmo erro.
D
Onde você vai chegar assim? Aonde vai?

Onde vai chegar assim?
Em
Contando historias sem fim... (dele e de mim)
D
Seu assunto principal é falar mal da vida alheia,
Em
Mas isso é coisa feia. Isso é coisa feia.

D
Falando mal, você gasta tempo e energia
                     Em
ao invés de levar a magia a um irmão teu
D                       Em
Onde você chegar assim? 
D
Seu assunto principal é falar mal da vida alheia,
Em
Mas isso é coisa feia. isso é coisa feia.

D
Quando não souber o que falar, não fale nada
Em
então não venha me ocupar apontando
                        D
os defeitos dos outros, como se fosse normal,
                                  Em
julgando-se perfeito, isso em si é um defeito
                 D
e você pode ver. Todos nós temos uma infinidade,
                             Em                   D
mas também temos qualidades que nem da pra contar 
Em
Fala de fulano, fala de ciclano (2x)
D
Fala de fulano, fala de ciclano

Em D (2x)
Acordes para:

    0 comentários

      mostrar mais comentários

      Conseguiu tocar?

      20tocaram1ainda não

      Grave um vídeo tocando Coisa Feia e mande pra gente!

      00:00 / 00:00
      outros vídeos desta música
      repetirqualidadeautomática
      Outro vídeos desta música
        00:00 / 00:00
        automática
        OK