Cifra Club

Aprenda

Fim do Dia

Ponto Nulo no Céu

Cifra: Principal (violão e guitarra)
tom: G
Introdução
D|-----------|
A|-----------|
F|-----------|
C|-----------|
G|--5*-------| Deixe soar.
C|-----------|

Um, dois, três, VAI!
D|-----|-------------------------|(4x)
A|-----|-------------------------|
F|-----|-------8--------8-----5--|
C|--3--|--0--0-x--0-0-0-x-0-0-3--|
G|--3--|--0--0-6--0-0-0-6-0-0-3--|
C|--3--|--0--0----0-0-0---0-0-3--|
PM        .  .    . . .   . .

D|-------------------------|(4x)
A|-------------------------|
F|-------------------------|
C|--0--0-1--0-0-0-1-0-0-3--|
G|--0--0-1--0-0-0-1-0-0-3--|
C|--0--0-1--0-0-0-1-0-0-3--|
PM  .  .    . . .   . .

D|----------------------|
A|----------------------|
F|----------------------|
C|------------------0---|
G|--6-5-6-8---6-5-6-0---|
C|------------------0---|
PM  . . . .   . . . .

Quando o céu se fechar...
D|----------------------------------------|(2x)
A|----------------------------------------|
F|----------------------------------------|
C|--0----------5---7~--0--------5-7-5-8~--|
G|--0--6-5-6-8---8-----0--6-5-6-----------|
C|--0------------------0------------------|

Quando a luz não mais brilhar...
D|-------------------------------------------|(2x)
A|------------------6---------------------6--|
F|------------------5---------------------5--|
C|--1-0--0-0--1-0-0-3-0-0-1-0--0-0--1-0-0-3--|
G|--1-0--0-0--1-0-0-3-0-0-1-0--0-0--1-0-0-3--|
C|--1-0--0-0--1-0-0-3-0-0-1-0--0-0--1-0-0-3--|
PM       . .    . .   . .      . .    . .

D|-------------------------|(2x)
A|-------------------------|
F|-------8--------8-----5--|
C|--0--0-x--0-0-0-x-0-0-3--|
G|--0--0-6--0-0-0-6-0-0-3--|
C|--0--0----0-0-0---0-0-3--|
PM     .    . . .   . .

D|-------------------------|(2x)
A|-------------------------|
F|-------------------------|
C|--0--0-1--0-0-0-1-0-0-3--|
G|--0--0-1--0-0-0-1-0-0-3--|
C|--0--0-1--0-0-0-1-0-0-3--|
PM     .    . . .   . .

Quando o cinza tomar conta do ar...
D|-------------------------------------------|(2x)
A|------------------6---------------------6--|
F|------------------5---------------------5--|
C|--1-0--0-0--1-0-0-3-0-0-1-0--0-0--1-0-0-3--|
G|--1-0--0-0--1-0-0-3-0-0-1-0--0-0--1-0-0-3--|
C|--1-0--0-0--1-0-0-3-0-0-1-0--0-0--1-0-0-3--|
PM       . .    . .   . .      . .    . .

Imponente o mal não deixa correr...
D|--------------------------------x--x--x--x-------------------------------|
A|--------------------------------x--x--x--x-------------------------------|
F|--------------------------------x--x--x--x-------------------------------|
C|--0--3--0--3--x-x--x-0--3--0--3-3*-3*-3*-3*--0--3--0--3--x-x--x-0--3--0--|
G|--0--3--0--3--x-x--x-0--3--0--3-3*-3*-3*-3*--0--3--0--3--x-x--x-0--3--0--|
C|--0--3--0--3--x-x--x-0--3--0--3-x--x--x--x---0--3--0--3--x-x--x-0--3--0--|


E quando um dia tudo acabar...
D|-----------------------------------------|
A|-----------------------------------------|
F|--10----10-10----10-12----12-12----12----|
C|--8-----8--8-----8--10----10-10----10\1--|
G|--8-----8--8-----8--10----10-10----10\1--|
C|--8-----8--8-----8--10----10-10----10\1--|

D|-------------------------------------------|
A|------------------8---------------------8--|
F|------------------7---------------------7--|
C|--1-0--0-0--3-0-0-5-0-0-1-0--0-0--3-0-0-5--|
G|--1-0--0-0--3-0-0-5-0-0-1-0--0-0--3-0-0-5--|
C|--1-0--0-0--3-0-0-5-0-0-1-0--0-0--3-0-0-5--|
PM       . .    . .   . .      . .    . .

D|-----------------------------------------|
A|-----------------------------------------|
F|-----------------------------------------|
C|--8-----8--8-----8--10----10-10----10\1--|
G|--8-----8--8-----8--10----10-10----10\1--|
C|--8-----8--8-----8--10----10-10----10\1--|

D|-------------------------------------------|
A|------------------8---------------------8--|
F|------------------7---------------------7--|
C|--1-0--0-0--3-0-0-5-0-0-1-0--0-0--3-0-0-5--|
G|--1-0--0-0--3-0-0-5-0-0-1-0--0-0--3-0-0-5--|
C|--1-0--0-0--3-0-0-5-0-0-1-0--0-0--3-0-0-5--|
PM       . .    . .   . .      . .    . .

D|---------------------------------------------------------------------------------------------|
A|---------------------------------------------------------------------------------------------|
F|--10-10-10-10-10-10-10-10-7-7-7-7-7-7-7-7-10-10-10-10-10-10-10-10-12-12-12-12-12-12-12-12----|
C|--8--8--8--8--8--8--8--8--5-5-5-5-5-5-5-5-8--8--8--8--8--8--8--8--10-10-10-10-10-10-10-10\0--|
G|--8--8--8--8--8--8--8--8--5-5-5-5-5-5-5-5-8--8--8--8--8--8--8--8--10-10-10-10-10-10-10-10\0--|
C|--8--8--8--8--8--8--8--8--5-5-5-5-5-5-5-5-8--8--8--8--8--8--8--8--10-10-10-10-10-10-10-10\0--|

MÃOS!!
D|---------------------------------------------------------------------------------------------------------------|
A|---------------------------------------------------------------------------------------------------------------|
F|---------------------------------------------------------------------------------------------------------------|
C|--1-0--0-0-0-0-0-0-0-0-1-0--00000000000000001-0--0-0-0-0-0-0-0-0-1-0--00000000000000001-0--0-0-0-0-0-0-0-0-1-0-|
G|--1-0--0-0-0-0-0-0-0-0-1-0--00000000000000001-0--0-0-0-0-0-0-0-0-1-0--00000000000000001-0--0-0-0-0-0-0-0-0-1-0-|
C|--1-0--0-0-0-0-0-0-0-0-1-0--00000000000000001-0--0-0-0-0-0-0-0-0-1-0--00000000000000001-0--0-0-0-0-0-0-0-0-1-0-|
PM       . . . . . . . .      ................     . . . . . . . .      ................     . . . . . . . .

Quando o céu se abrir...
D|----------------------------------------|(2x)
A|----------------------------------------|
F|----------------------------------------|
C|--0----------5---7~--0--------5-7-5-8~--|
G|--0--6-5-6-8---8-----0--6-5-6-----------|
C|--0------------------0------------------|

Quando o cinza tomar conta do ar...
D|-------------------------------------------|
A|------------------6---------------------6--|
F|------------------5---------------------5--|
C|--1-0--0-0--1-0-0-3-0-0-1-0--0-0--1-0-0-3--|
G|--1-0--0-0--1-0-0-3-0-0-1-0--0-0--1-0-0-3--|
C|--1-0--0-0--1-0-0-3-0-0-1-0--0-0--1-0-0-3--|
PM       . .    . .   . .      . .    . .

D|-----------------------------------------|
A|------------------6----------------------|
F|------------------5----------------------|
C|--1-0--0-0--1-0-0-3-0-0-1-0--0-0--3-0-3--|
G|--1-0--0-0--1-0-0-3-0-0-1-0--0-0--3-0-3--|
C|--1-0--0-0--1-0-0-3-0-0-1-0--0-0--3-0-3--|
PM       . .    . .   . .      . .    . .


De mais um dia...
D|-------------------------------------------------------|
A|-------------------------------------------------6--5--|
F|-------------------------------------------------x--x--|
C|--1-0----0-3-0-3-0----0-3-0-3-0----0-3-0-3-0---0-3--3--|
G|--1-0----0-3-0-3-0----0-3-0-3-0----0-3-0-3-0---0-------|
C|--1-0----0-3-0-3-0----0-3-0-3-0----0-3-0-3-0---0-------|
PM         .   .   .    .   .   .    .   .   .   .

Imponente o mal não deixa correr...
D|--------------------------------x--x--x--x----------------------------|
A|--------------------------------x--x--x--x----------------------------|
F|--------------------------------x--x--x--x----------------------------|
C|--0--3--0--3--x-x--x-0--3--0--3-3*-3*-3*-3*--0--3--0--3--x-x--x-x--0--|
G|--0--3--0--3--x-x--x-0--3--0--3-3*-3*-3*-3*--0--3--0--3--x-x--x-x--0--|
C|--0--3--0--3--x-x--x-0--3--0--3-x--x--x--x---0--3--0--3--x-x--x-x--0--|

E quando um dia tudo acabar...
D|-----------------------------------------|
A|-----------------------------------------|
F|--10----10-10----10-12----12-12----12----|
C|--8-----8--8-----8--10----10-10----10\1--|
G|--8-----8--8-----8--10----10-10----10\1--|
C|--8-----8--8-----8--10----10-10----10\1--|

D|-------------------------------------------|
A|------------------8---------------------8--|
F|------------------7---------------------7--|
C|--1-0--0-0--3-0-0-5-0-0-1-0--0-0--3-0-0-5--|
G|--1-0--0-0--3-0-0-5-0-0-1-0--0-0--3-0-0-5--|
C|--1-0--0-0--3-0-0-5-0-0-1-0--0-0--3-0-0-5--|
PM       . .    . .   . .      . .    . .

D|-----------------------------------------|
A|-----------------------------------------|
F|-----------------------------------------|
C|--8-----8--8-----8--10----10-10----10\1--|
G|--8-----8--8-----8--10----10-10----10\1--|
C|--8-----8--8-----8--10----10-10----10\1--|

D|-------------------------------------------|
A|------------------8---------------------8--|
F|------------------7---------------------7--|
C|--1-0--0-0--3-0-0-5-0-0-1-0--0-0--3-0-0-5--|
G|--1-0--0-0--3-0-0-5-0-0-1-0--0-0--3-0-0-5--|
C|--1-0--0-0--3-0-0-5-0-0-1-0--0-0--3-0-0-5--|
PM       . .    . .   . .      . .    . .

D|--------------------------------------------------------------------------------------------|
A|--------------------------------------------------------------------------------------------|
F|--10-10-10-10-10-10-10-10-7-7-7-7-7-7-7-7-10-10-10-10-10-10-10-10-12-12-12-12-10-10-10-10---|
C|--8--8--8--8--8--8--8--8--5-5-5-5-5-5-5-5-8--8--8--8--8--8--8--8--10-10-10-10-8--8--8--8\0--|
G|--8--8--8--8--8--8--8--8--5-5-5-5-5-5-5-5-8--8--8--8--8--8--8--8--10-10-10-10-8--8--8--8\0--|
C|--8--8--8--8--8--8--8--8--5-5-5-5-5-5-5-5-8--8--8--8--8--8--8--8--10-10-10-10-8--8--8--8\0--|

Mãos... BUUUUUUUUUM!!
D|-----|-----------------------------------------------------|(3x)|-------|
A|-----|-----------------------------------------------------|    |-------|
F|-----|-----------------------------------------------------|    |-------|
C|--0--|--1-0--------1-0--------1-0--------1-0--------0-0-0--|    |--1-0--|
G|--0--|--1-0--------1-0--------1-0--------1-0--------0-0-0--|    |--1-0--|
C|--0--|--1-0--------1-0--------1-0--------1-0--------0-0-0--|    |--1-0--|
Composição de Ponto Nulo No Céu
Colaboração e revisão:
  • Jonathan
3.028 exibições
    • ½ Tom
    • A
    • Bb
    • B
    • C
    • Db
    • D
    • Eb
    • E
    • F
    • F#
    • G
    • Ab
  • Adicionar à lista

    0 comentários

    Ver todos os comentários

    Conseguiu tocar?

    2 Tocaram 0 Ainda não

    Grave um vídeo tocando Fim do Dia e nos envie!

    00:00 / 00:00
    outros vídeos desta música
    repetir qualidade Automático
    Outros vídeos desta música
    00:00 / 00:00
    Automático

    Cifra Club Pro

    Aproveite o Cifra Club com benefícios exclusivos e sem anúncios
    Cifra Club Pro
    Aproveite o Cifra Club com benefícios exclusivos e sem anúncios
    OK