Cifra Club

Rincón Yucateco

Porter

Cifra: Principal (violão e guitarra)
tom: D
Intro
Min 0:15-0:40
      Pm        Pm
E|----x-22------x-22-x-22-|
B|----x-24-x-24-x-24------|
G|----x-24------x-24------|
D|------------------------|
A|------------------------|
E|------------------------|

Verso

Min 0:45   1) Que más…
Min 1:26   2) Camelia se perdió…
GI
E|--------------------------------------------------|
B|-----151515x151515/121212x121212/141414x141414----|
G|--14----------------------------------------------|
D|-----121212x121212/9-9-9-x9-9-9-/111111x111111----|
A|--12----------------------------------------------|
E|--------------------------------------------------|

E|-------------------------------------------------------------12--|
B|---------------151515x151515/121212x121212/141414x141414-1415----|
G|-141414x141414---------------------------------------------------|
D|---------------121212x121212/9-9-9-x9-9-9-/111111x111111---------|
A|-121212x121212---------------------------------------------------|
E|-----------------------------------------------------------------|
                                                                          x2
E|--------------------------------------------------|
B|-----151515x151515/121212x121212/141414x141414----|
G|--14----------------------------------------------|
D|-----121212x121212/9-9-9-x9-9-9-/111111x111111----|
A|--12----------------------------------------------|
E|--------------------------------------------------|

E|-------------------------------------------------------------------|
B|---------------151515x151515/121212x121212/141414x141414-10-12/14~-|
G|-141414x141414-----------------------------------------------------|
D|---------------121212x121212/9-9-9-x9-9-9-/111111x111111-----------|
A|-121212x121212-----------------------------------------------------|
E|-------------------------------------------------------------------|


1) Min 1:12 Vuela, Vuela
2) Min 1:55
      Pm         Pm
E|----x-22------x-22-x-22-|
B|----x-24-x-24-x-24------|
G|----x-24------x-24------|
D|------------------------|
A|------------------------|
E|------------------------|

     Min 1:32         Min 1:38
GII
E|-----------------|----------------------------------|
B|-----------------|----------------------------------|
G|------7/9/11-----|----14-x-14/11--11/12/11----------|
D|-----------------|----------------------------------|
A|------5/7/9------|----12-x-12/9---9/-10/9-----------|
E|-----------------|----------------------------------|


       Min 1:45                          Min 1:52
GII
E|-------------------------------|-----------------------------|
B|-------------------------------|-----------------------------|
G|-----11h12/11--9h11/9/11-------|---------14/11-12/11---------|
D|-------------------------------|-----------------------------|
A|------9h10/9---7h9/7/9---------|-----------------------------|
E|-------------------------------|-----------------------------|

Coro
Min 2:10 Ay se paró su corazón…
(Distor)
E|-----------------------------------------|
B|-----------------------------------------|
G|-----------------------------------------| x2
D|-----------------------------------------|
A|------------/5~------------/~5-----------|
E|--/7--5-2h3------/7--5-2h3------7--------|

Puente

Min 2:38
GI
E|----------|-----------|----------|----------------|
B|----------|-----------|-----3----|-------0--------|
G|----------|------2----|----4-----|------0---------| x3
D|------4---|-----4-----|-5-5---5~-|-5/2-2--2-------|
A|-----5----|--5-5---5--|----------|----------------|
E|--7-7---7-|-----------|----------|----------------|

GII
E|-------------------------------|--------------------|
B|-------------------------------|--------------------|
G|---/6~-6h7--7-7/6-6-6/4-4-4/2--|--------------------| x3
D|-------------------------------|-4h5-4-5-4-4h5------|
A|-------------------------------|--------------------|
E|-------------------------------|--------------------|

Min 3:05

E|-2-2-2-2-2-2-2-2-|-5-5-5-5-5-5-5-5-|
B|-3-3-3-3-3-3-3-3-|-7-7-7-7-7-7-7-7-|
G|-4-4-4-4-4-4-4-4-|-7-7-7-7-7-7-7-7-|
D|-4-4-4-4-4-4-4-4-|-7-7-7-7-7-7-7-7-|
A|-----------------|-----------------|
E|-----------------|-----------------|

E|-3-3-3-3-3-3-3-3-|-7-7-7-7-7-7-7-7-------|
B|-3-3-3-3-3-3-3-3-|-8-8-8-8-8-8-8-8-------|
G|-4-4-4-4-4-4-4-4-|-9-9-9-9-9-9-9-9-------|
D|-5-5-5-5-5-5-5-5-|-9-9-9-9-9-9-9-9-------|
A|-----------------|-7-7-7-7-7-7-7-7-------|
E|-----------------|-----------------------|
Verso

Min 3:19 Camelia cual es color…
GI
E|--------------------------------------------------|
B|-----151515x151515/121212x121212/141414x141414----|
G|--14----------------------------------------------|
D|-----121212x121212/9-9-9-x9-9-9-/111111x111111----|
A|--12----------------------------------------------|
E|--------------------------------------------------|

E|-------------------------------------------------------------12--|
B|---------------151515x151515/121212x121212/141414x141414-1415----|
G|-141414x141414---------------------------------------------------|
D|---------------121212x121212/9-9-9-x9-9-9-/111111x111111---------|
A|-121212x121212---------------------------------------------------|
E|-----------------------------------------------------------------|

E|------------------------------------------------7-7-7-7-7-7-7-7----|
B|-----151515x151515/121212x121212/141414x141414--8-8-8-8-8-8-8-8----|
G|--14--------------------------------------------9-9-9-9-9-9-9-9----|
D|-----121212x121212/9-9-9-x9-9-9/-111111x111111--9-9-9-9-9-9-9-9----|
A|--12--------------------------------------------7-7-7-7-7-7-7-7----|
E|-------------------------------------------------------------------|

Coro
Min 3:32 Ay se paró su corazón…
(Distor)
E|-----------------------------------------|
B|-----------------------------------------|
G|-----------------------------------------| x4
D|-----------------------------------------|
A|------------/5~------------/~5-----------|
E|--/7--5-2h3------/7--5-2h3------7--------|

/| Slide
h| Hamer on
x| mute
~| vibrato
00:00 / 00:00
Outros vídeos desta música
Repetir
Outros vídeos desta música
Composição de Porter
7 exibições
    • ½ Tom
    • A
    • Bb
    • B
    • C
    • Db
    • D
    • Eb
    • E
    • F
    • F#
    • G
    • Ab
  • Adicionar à lista

    0 comentários

    Ver todos os comentários

    Conseguiu tocar?

    0 Tocaram 0 Ainda não

    Grave um vídeo tocando Rincón Yucateco e nos envie!

    00:00 / 00:00

    Cifra Club Pro

    Aproveite o Cifra Club com benefícios exclusivos e sem anúncios
    Cifra Club Pro
    Aproveite o Cifra Club com benefícios exclusivos e sem anúncios
    OK