Cifra Club

Do Your Thing

Powerman 5000

Cifra: Principal (violão e guitarra)
Selo Cifra Club: esta cifra foi revisada para atender aos critérios oficiais da nossa Equipe de Qualidade.
tom: E
E|--------------------|--------------------|
B|--------------------|--------------------|
G|--------------------|--------------------|
D|--------------------|--------------------| This is just simply repeated for the first third of the song
A|7-----------------7/| 12-\7-7---------5-7-|
E|5-----------------5/| 10-\5-5---------3-5-|

[Chorus]

E|----------------|----------------|------------------|--------------------|
B|----------------|----------------|------------------|--------------------|
G|----------------|----------------|------------------|--------------------|
D|----------------|----------------|------------------|--------------------|
A|3-3-3-3-3-3-7-5-|5-5-5-5-5-5-9-7-|7-7-7-7-7-7-10-12-|-10-12-10-12-10-5-3-|
E|1-1-1-1-1-1-5-3-| 3-3-3-3-3-3-7-5-|5-5-5-5-5-5-8--10-|-8--10-8--10-8--3-1-|

E|----------------|---------------|
B|----------------|---------------|
G|----------------|---------------|
D|----------------|---------------|
A|3-3-3-3-3-3-7-5-|5-5-5-5-5-5-5\-|
E|1-1-1-1-1-1-5-3-|3-3-3-3-3-3-3\-|

E|----------------|----------------|
B|----------------|----------------|
G|----------------|----------------|
D|----------------|----------------| x3
A|7-7----10-10----| 12-12----5-5----|
E|5-5----8--8-----| 10-10----3-3----|

E|----------------|----------|
B|----------------|----------|
G|----------------|----------|
D|----------------|----------|
A|7-7----10-10----| 12-12\----|
E|5-5----8--8-----| 10-10\----|

[Middle 8]

E|--------------------|--------------------|
B|--------------------|--------------------|
G|--------------------|--------------------|
D|--------------------|--------------------| x4
A|7-----------------7/| 12-\7-7---------5-7-|
E|5-----------------5/| 10-\5-5---------3-5-|

E|--------------------|-------------------------|
B|--------------------|-------------------------|
G|--------------------|-------------------------|
D|--------------------|-------------------------| x4
A|7-x--x-x--x-x--x--7/| 12-\7-7-x-x--x-x--x--5-7-|
E|5-x--x-x--x-x--x--5/| 10-\5-5-x-x--x-x--x--3-5-|

[Chorus]

E|----------------|----------------|------------------|--------------------|
B|----------------|----------------|------------------|--------------------|
G|----------------|----------------|------------------|--------------------|
D|----------------|----------------|------------------|--------------------|
A|3-3-3-3-3-3-7-5-|5-5-5-5-5-5-9-7-|7-7-7-7-7-7-10-12-|-10-12-10-12-10-5-3-|
E|1-1-1-1-1-1-5-3-| 3-3-3-3-3-3-7-5-|5-5-5-5-5-5-8--10-|-8--10-8--10-8--3-1-|

E|----------------|---------------|
B|----------------|---------------|
G|----------------|---------------|
D|----------------|---------------|
A|3-3-3-3-3-3-7-5-|5-5-5-5-5-5-5\-|
E|1-1-1-1-1-1-5-3-|3-3-3-3-3-3-3\-|

E|----------------|----------------|
B|----------------|----------------|
G|----------------|----------------|
D|----------------|----------------| x4
A|7-7----10-10----| 12-12----5-5----|
E|5-5----8--8-----| 10-10----3-3----|

E|----------------|
B|----------------|
G|----------------|
D|----------------|
A|7---------------|
E|5---------------|

E|----------------|----------------|------------------|--------------------|
B|----------------|----------------|------------------|--------------------|
G|----------------|----------------|------------------|--------------------|
D|----------------|----------------|------------------|--------------------| x3
A|3-3-3-3-3-3-7-5-|5-5-5-5-5-5-9-7-|7-7-7-7-7-7-10-12-|-10-12-10-12-10-5-3-|
E|1-1-1-1-1-1-5-3-| 3-3-3-3-3-3-7-5-|5-5-5-5-5-5-8--10-|-8--10-8--10-8--3-1-|

E|----------------|---------------|
B|----------------|---------------|
G|----------------|---------------|
D|----------------|---------------|
A|3-3-3-3-3-3-7-5-|5-5-5-5-5-5-5\-|
E|1-1-1-1-1-1-5-3-|3-3-3-3-3-3-3\-|

E|----------------|----------------|
B|----------------|----------------|
G|----------------|----------------|
D|----------------|----------------| x3
A|7-7----10-10----| 12-12----5-5----|
E|5-5----8--8-----| 10-10----3-3----|

E|----------------|----------------|----------------|
B|----------------|----------------|----------------|
G|----------------|----------------|----------------|
D|----------------|----------------|----------------|
A|7-7----10-10----| 12-12-----------|7---------------|
E|5-5----8--8-----| 10-10-----------|5---------------|




************************************

| x   Dead note
| /   Slide up
| \   Slide down
Outros vídeos desta música
    14 exibições
      • ½ Tom
      • A
      • Bb
      • B
      • C
      • Db
      • D
      • Eb
      • E
      • F
      • F#
      • G
      • Ab
    • Adicionar à lista

    Afinação da cifra

    Afinador online

      0 comentários

      Ver todos os comentários

      Entre para o Cifra Club PRO

      Tenha acesso a benefícios exclusivos no App e no Site

      • Chega de anúncios

      • Badges exclusivas

      • Mais recursos no app do Afinador

      • Atendimento Prioritário

      • Aumente seu limite de lista

      • Ajude a produzir mais conteúdo

      Cifra Club Pro

      Aproveite o Cifra Club com benefícios exclusivos e sem anúncios
      Cifra Club Pro
      Aproveite o Cifra Club com benefícios exclusivos e sem anúncios
      Ops (: Contenido disponible sólo en portugués.
      OK