Cifra Club

O Chamado

Pr. Lucas

Cifra: Principal (violão e guitarra)
tom: F
E|----------------------------------------------------------------|
B|----------------------------------------------------------------| (4x)
G|-------7-5--------------------7-5------5------------------------|
D|-------7-5--5/7-5---5-3-------7-5--5/7---7-5-3------------------|
A|--5-5-------------5-------5-5-----------------------------------|
E|----------------------------------------------------------------|

E|-------------------------------------------17-------------------|
B|----------------------------------------------------------------|
G|--7-9-10-12--7-9-10-14~--7-9-10-12--7-9-10-14-------------------|
D|----------------------------------------------------------------|
A|----------------------------------------------------------------|
E|----------------------------------------------------------------|

Dm                 F
Quando curar, me usa pra orar
          Dm
Quando falar
F
Deixa-me ser o teu profeta
Dm             F
Quando mover, enche-me de ti
Dm                         Bb
Quando fizer algo nessa geração
  C
Não faça sem mim

Dm   Bb  F           C
 Ouou    pode me chamar, Senhor
Dm   Bb  F           C
 Ouou    eu estou aqui
Dm   Bb  F           C
 Ouou    estou ao seu dispor
Dm                         Bb
Quando fizer algo nesse geração
  C
Não faça sem mim

Dm             Bb
Se quer usar
F           C
A minha canção
Dm             Bb
Pra despertar
F                 C
Teu povo nessa nação
Dm             Bb
Pra combater
F                     C
Todo mal, toda corrupção
Dm                         Bb
Quando fizer algo nessa geração
  C
Não faça sem mim

     Bb
Me usa pra libertar os cativos
     G
Me usa pra alimentar os famintos
     Bb
Me usa pra ser a força do fraco
     A
Eu estou a seu dispor

Eu aceito o seu chamado

    Bb
Me usa espírito santo
    G/B
E ungi aquilo que eu canto
    Bb
E enche o meu coração
     A
De coragem pra mudar a minha geração
Composição de Pr. Lucas
Colaboração e revisão:
  • Gabriel Menezes
  • Matheus Gabriel
  • Luciano Mendes
93.838 exibições
    • ½ Tom
    • A
    • Bb
    • B
    • C
    • Db
    • D
    • Eb
    • E
    • F
    • F#
    • G
    • Ab
  • Adicionar à lista

    0 comentários

    Ver todos os comentários
    00:00 / 00:00
    Outros vídeos desta música
    Repetir Qualidade Automático
    Outros vídeos desta música
    00:00 / 00:00
    Automático

    Cifra Club Pro

    Aproveite o Cifra Club com benefícios exclusivos e sem anúncios
    Cifra Club Pro
    Aproveite o Cifra Club com benefícios exclusivos e sem anúncios
    OK