Cifra Club

Preparado

Preto No Branco

Cifra: Completa (violão e guitarra)
tom: D
        D7+     C#m7      Bm7      F#7
O que o olho não viu, nem ouvido ouviu

Refrão:

(Riff 1)          D7+  C#m7  Bm7     D/E
Ele tem prepa-----ra---------do

                 A9(6)   (Riff 2)
Especialmente pra você

(Riff 1)          D7+  C#m7   Bm7    D/E
Ele tem traba-----lha---------do

                     A9(6)   (Riff 2)
Com Cristo você vai vencer.


(Riff 3)

D7+     C#m7     Bm7  D/E
O que o olho não viu, nem ouvido ouviu
                  A9(6) F#7(13-)     F#7
Ele tem pra você pre|---pa---ra----do.
D7+                       Bm7
Não importa qual a sua cor
D/E
Se o sangue que ele derramou 
A9(6)                        F#7(13-)   F#7
Foi por todos nós na cruz   
D7+       C#m7     Bm7        D/E
Nessa vida há caminhos que ao homem parece legal
D7+               C#m7                 Bm7    Bm7   C#m7
Sem o autor da vida tudo acaba mal no final
D7+          C#m7
Seja forte, corajoso,
G7         F#7
Não temas, nunca desanime não
Bm7      D/E               A9(6) - F#7(13-) - F#7
O melhor ele tem pra você
    
  (Volta ao Refrão)


  Riff 1
E|------------------|
B|------------------|
G|--------2h3-------|
D|----2-3-----------|
A|-2h3--------------|
E|------------------|
 

  Riff 2
E|------------------------------|
B|------------------------------|
G|-6/7/6---4/6/4-----2/3--3-3---|
D|------------------------------|
A|-4/5/4---2/4/2-----0/1--1-1---|
E|------------------------------|

 Riff 3
E|------------------------------|
B|------------------------------|
G|--4/6--2--4h2p4---------------|
D|-----------------4------------|
A|------------------------------|
E|------------------------------|
00:00 / 00:00
Outros vídeos desta música
Repetir
Outros vídeos desta música
Composição de Clóvis Pinho
Colaboração e revisão:
  • Gustavo Alves
2.266 exibições
    • ½ Tom
    • A
    • Bb
    • B
    • C
    • Db
    • D
    • Eb
    • E
    • F
    • F#
    • G
    • Ab
  • Adicionar à lista

    0 comentários

    Ver todos os comentários

    Entre para oCifra Club PRO

    Tenha acesso a benefícios exclusivos no App e no Site

    • Chega de anúncios

    • Prioridade de compra em lançamentos

    • Mais recursos no app do Afinador

    • Atendimento Prioritário

    • Descontos nos produtos Cifra Club

    • Ajude a produzir mais conteúdo

    00:00 / 00:00

    Cifra Club Pro

    Aproveite o Cifra Club com benefícios exclusivos e sem anúncios
    Cifra Club Pro
    Aproveite o Cifra Club com benefícios exclusivos e sem anúncios
    OK