Notificações Amigos pendentes

      Primer 55

      Violence

      157 exibições
      Tom: G
      Album: Introduction To Mayhem
      Transcribed By: Bryan Bramlett (*)
      
      CHORUS:
      
      |-----------------------|
      |-----------------------|
      |-----------------------|
      |-4-4--0-2-4-3-2--4-3-2-|
      |-4-4--0-2-4-3-2--4-3-2-|
      |-4-4--0-2-4-3-2--4-3-2-|
      
      
      VERSE:
      
      |----------------------|
      |----------------------|
      |----------------------|
      |----------------------|
      |----------------------|
      |-4-4--0-2-4-3-2-4-3-2-|
      
      
      BRIDGE:
      
      |-------------------|
      |-------------------|
      |-4---5---7-77-7777-|
      |-2-X-3-X-5-55-5555-|
      |-2-X-3-X-5-55-5555-|
      |-2-X-3-X-5-55-5555-|
      
      
      FILL:
      
      |------------------------|
      |------------------------|
      |------------------------|
      |------------------------|
      |-4/5--4/5--4/5-44445555-|
      |------------------------|
      
      
      INTERLUDE:
      
      |---------------------|
      |---------------------|
      |---------------------|
      |-4--4\---------------|
      |-4--4\---------------|
      |-4--4\--4-3-2--4-3-2-|
      

      Comentários 0

      140 .
      140 cancelar

      conseguiu tocar?

      covers

      Grave um vídeo tocando Violence e mande pra gente!

      Ex.: http://www.youtube.com/watch?v=0IvSvIwGdwk
      ver covers de outras músicas »
      0:00 / 0:00

      Capítulos

        1 versão de violão dificuldade exibições contribuição e correção
        1 versão de guitarra dificuldade exibições contribuição e correção
        1 versão de cavaco dificuldade exibições contribuição e correção
        1 versão de teclado dificuldade exibições contribuição e correção
        play/pausefechar subir/descer velocidade
        6ª corda E5ª corda A4ª corda D3ª corda G2ª corda B1ª corda E
          acordes
          publicidade
          fechar
          ok