Cifra Club

Aprenda

Anti-Pop

Primus

Cifra: Principal (violão e guitarra)
tom: F#
Intro:(com flanger)
|-----------------|---------------|
|-----------------|---------------|
|-2--------5------|-2-------------|
|-2--4-----5------|-2--4----------|
|-0--4-----3------|-0--4----------|
|----2------------|----2----------|

Baixo:
|-----------------|
|-----------------|
|-----------------|
|0h2--5-2---------|

|-----------------|
|-----------------|
|-----------------|
|-----4-------4---|
|-----4-------4---|
|-----2-------2---|

|---5---5---5---5-|
|-----------------|
|-3---3---3---3---|
|-----------------|

|-----------------|
|-----------------|
|---5---5---5---5-|
|-5---5---5---5---|
|-----------------|
|------------==---|

Fim dessa parte
|-----------------|
|-----------------|
|-----------------|
|-4-4---4-4---4-4-|
|-4-4---4-4---4-4-|
|-2-2---2-2---2-4-|

Solo
|----------------------------------------------|
|----------------------------------------------|
|-11--/14-14~-----15-15\14-14\11-----17/18-18~-|
|-x-------x-------x--x-----x---------x-----x---|
|-9---/12-12~-----13-13\12-12\9------15/16-16~-|
|----------------------------------------------|

|----------------------------------------------|
|----------------------------------------------|
|-11--/14-14~-----15-15\14-14\11---------------|
|-x-------x-------x--x-----x---------4-4-------|
|-9---/12-12~-----13-13\12-12\9------x-x-------|
|------------------------------------2-2-------|

Verso: F# - B - C - C# - D/  (ouça a música para pegar o tempo)

Refrão:
|---2-2-2-2---------6-6-6-6---------2-2-2-2---------5h6-5h6------|
|---2-2-2-2---------6-6-6-6---------2-2-2-2---------5h6-5h6------|
|---2-2-2-2---------6-6-6-6---------2-2-2-2---------5h6-5h6------|
|----------------------------------------------------------------|
|----------------------------------------------------------------|
|----------------------------------------------------------------|

Verso
Refrão

Pós Refrão
|-------------------------------------|
|-------------------------------------|
|-11------9---8------11------14---16--|
|-11------9---8------11------14---16--|
|-9-------7---6------9-------12---14--|
|-------------------------------------|

Intro:(com flanger)
|---------------|-----------------|
|---------------|-----------------|
|-2-------------|-2--------5------|
|-2--4----------|-2--4-----5------|
|-0--4----------|-0--4-----3------|
|----2----------|----2------------|

Solo: Nada definido..improvise

Verso  F# - B - C - C# - D/
Baixo:
F#
|-----------------|
|-----------------|
|-----------------|
|0h2--5-2---------|

|-----------------|
|-----------------|
|-----------------|
|-----4-------4---|
|-----4-------4---|
|-----2-------2---|

B
|---------3--------|---------6--------|
|---6-4-6---6-4-6--|---8-6-8---8-6-8--|
|-4----------------|-6----------------|
|------------------|------------------|
|------------------|------------------|
|------------------|------------------|

Refrão

Fim
|---------------|
|---------------|
|-2-------------|
|-2--4----------|
|-0--4----------|
|----2----------|
2.121 exibições
    • ½ Tom
    • A
    • Bb
    • B
    • C
    • Db
    • D
    • Eb
    • E
    • F
    • F#
    • G
    • Ab
  • Adicionar à lista

    0 comentários

    Ver todos os comentários

    Conseguiu tocar?

    0 Tocaram 0 Ainda não

    Grave um vídeo tocando Anti-Pop e nos envie!

    00:00 / 00:00
    outros vídeos desta música
    repetir qualidade Automático
    Outros vídeos desta música
    00:00 / 00:00
    Automático

    Cifra Club Pro

    Aproveite o Cifra Club com benefícios exclusivos e sem anúncios
    Cifra Club Pro
    Aproveite o Cifra Club com benefícios exclusivos e sem anúncios
    OK