Cifra Club

Aprenda

Bob

Primus

Cifra: Principal (violão e guitarra)
tom: G
Album: Pork Soda

I've broken this song up into sections
so you can play along with the song to figure out the verse
and chorus pattern, etc.


h =hammer on
p =pull off
b =bend string up
r =release bend
/ =slide up
 =slide down
v =vibrato
x =muted string strike
w =whammy


Intro riff:                                        v
e--------------------------10--------------------------------|
B--6--0h6p0----------------10---6--0h6p0---------------------|
G-----------7--0h7p0-------10------------7--0h7p0------------|
D--------------------9---0------------------------9----------|
A----------------------8----------------------------8--------|
E------------------------------------------------------------|

e--------------------------10--------------------------------|
B--6--0h6p0----------------10---6--0h6p0---------------------|
G-----------7--0h7p0-------10------------7-0h7p0---------|
D--------------------9---0-----------------------9-----------|
A----------------------8-------------------------------------|
E------------------------------------------------------------|


Repeat this riff as necessary.
Verse:
e----------10--------------------x--x--x-x-x--10-------------|
B--------9----9------10----------x--x--x-x-x--10-------------|
G--/7-----------7/10-10----------x--x--x-x-x--10-------------|
D--0-----------------------------x--x--x-x-x-----------------|
A------------------------------------------------------------|
E------------------------------------------------------------|


Play Intro riff, then verse, then using whammy, play this:
Chorus:
e--------------------------------------------------------17--|
B--/15--15--15--15--15--15--15--15--15--15--15--15-15----15--|
G---------13--13--13--13--13--13--13--13--13--13------13-----|
D------------------------------------------------------------|
A------------------------------------------------------------|
E------------------------------------------------------------|


Play Intro riff, then verse, then chorus.
Use a crybaby for the solo, a delay pedal sounds good with it

Solo:
e------------------------------------------------------8-7---|
B-----------------------------------7-6--6h7h9-10------------|
G-----------------------------4-6h7------------11-9h10-------|
D--12w------6/8-8-6w--6-5h6-8--------------------------------|
A------14w---------------------------------------------------|
E------------------------------------------------------------|

e--8-10h11-11h13-13p11p10h11-/16-16-16-14---12-1210-----------|
B-------------------------------------------13-1311--13-13----|
G-------------------------------------------------------------|
D-------------------------------------------------------------|
A-------------------------------------------------------------|
E-------------------------------------------------------------|

e----------------------------------------------------12h13p12-|
B--13p11------------------------------------13-15-15----------|
G--------11-13----13-15p13----13/15-15-15-15------------------|
D--------------14----------16---------------------------------|
A-------------------------------------------------------------|
E-------------------------------------------------------------|

e--13-15p12-15-18p15-20br--22--------------------------------|
B--------------------------21--------------------------------|
G------------------------------------------------------------|
D------------------------------------------------------------|
A------------------------------------------------------------|
E------------------------------------------------------------|


Verse, intro riff a few times. The few last intro riffs are
a little different:

e--------------------------10--------------------------------|
B--6--0h6p0----------------10---6--0h6p0---------------------|
G-----------7--0h7p0-------10------------7--0h7p0------------|
D--------------------9---0------------------------9----------|
A----------------------8----------------------------8--------|
E------------------------------------------------------------|

e------------------------10-----------------------------------|
B--6-0h6p0---------------10-----------------------------------|
G----------7-0h7p0-------10-11--11-11-11-11/12-12-12/13-13-13-|
D------------------9---0----10--10-10-10-10/11-11-11/12-12-12-|
A--------------------8------9---9--9--9---9/10-10-10/11-11-11-|
E-------------------------------------------------------------|
Composição de Larry LaLonde / Les Claypool / Primus / Tim Herb Alexander
265 exibições
    • ½ Tom
    • A
    • Bb
    • B
    • C
    • Db
    • D
    • Eb
    • E
    • F
    • F#
    • G
    • Ab
  • Adicionar à lista

    0 comentários

    Ver todos os comentários
    00:00 / 00:00
    outros vídeos desta música
    repetir qualidade Automático
    Outros vídeos desta música
    00:00 / 00:00
    Automático

    Cifra Club Pro

    Aproveite o Cifra Club com benefícios exclusivos e sem anúncios
    Cifra Club Pro
    Aproveite o Cifra Club com benefícios exclusivos e sem anúncios
    OK