Cifra Club

Aprenda

Del Davis Tree Farm

Primus

Cifra: Principal (violão e guitarra)
tom: C
Album: Tales from the Punchbowl (1995)
Tuning: standard
Notes:
/\/\/\/\ - whammy tremolo
\/ - whammmy
b - bend
h - hammer on
p - pull off

e|-------------------------------|
B|-------------------------------|
G|-------------------------------|
D|--9--9--9--7--10--9--9-9-9-----|
A|--9--9--9--7--10--9--9-9-9-----| x4
E|--7--7--7--5--8---7--7-7-7-----|

e|---12h13p12----|
B|---------------|
G|---------------|
D|---------------|
A|---------------|
E|---------------|
Del Davis sold a Christmas tree
Stood up to 8 feet tall

e|-------------------------------|
B|-------------------------------|
G|-------------------------------|
D|--9--9--9--7--10--9--9-9-9-----|
A|--9--9--9--7--10--9--9-9-9-----| x2
E|--7--7--7--5--8---7--7-7-7-----|

e|---12h13p12----|
B|---------------|
G|---------------|
D|---------------|
A|---------------|
E|---------------|
Season was lookin' mighty thin
He'd hoped to sell 'em all

e|-------------------------------|
B|-------------------------------|
G|-------------------------------|
D|--9--9--9--7--10--9--9-9-9-----|
A|--9--9--9--7--10--9--9-9-9-----| x2
E|--7--7--7--5--8---7--7-7-7-----|

Chorus:
e|------------------------------------------------------------11-13---|
B|--11\/\/\/-13------11\/\/\/-13------11\/\/\/-13-----------11--------|
G|--12\/\/\/-14------12\/\/\/-14------12\/\/\/-14---------12----------|
D|--13\/\/\/-15------13\/\/\/-15------13\/\/\/-15-------13------------|
A|---------------0\/--------------0\/--------------0\/----------------|
E|--------------------------------------------------------------------|
         Here he comes   with a dollar in his hand    he Represents     the epitomized man

e|-------------------------------|
B|-------------------------------|
G|-------------------------------|
D|--9--9--9--7--10--9--9-9-9-----|
A|--9--9--9--7--10--9--9-9-9-----| x4
E|--7--7--7--5--8---7--7-7-7-----|

e|---12h13p12----|
B|---------------|
G|---------------|
D|---------------|
A|---------------|
E|---------------|
The boy liked rock 'n' roll
Seemed that's the way he paid his way

e|-------------------------------|
B|-------------------------------|
G|-------------------------------|
D|--9--9--9--7--10--9--9-9-9-----|
A|--9--9--9--7--10--9--9-9-9-----| x2
E|--7--7--7--5--8---7--7-7-7-----|

e|--------------------------------------x--------------------------|
B|----4/8-------------------------------x--------------------------|
G|----4/8-------------------------------x--hit between-------------|
A|----------9--9--9--7--10--9--9-9-9----x--the fingerboard---------|
E|----------7--7--7--5--8---7--7-7-7----x--------------------------|

e|----------------------------------|
B|----------------------------------|
G|----------------------------------|
D|--9--9--9--7--10--9--9-9-9---8\/--|
A|--9--9--9--7--10--9--9-9-9---6\/--|
E|--7--7--7--5--8---7--7-7-7---6\/--|
                                With the help of Del and them "Doogs"
                                There's a bit more joy this holiday

e|-------------------------------|
B|-------------------------------|
G|-------------------------------|
D|--9--9--9--7--10--9--9-9-9-----|
A|--9--9--9--7--10--9--9-9-9-----| x4
E|--7--7--7--5--8---7--7-7-7-----|

Chorus:
e|---------------------------------------------------------|
B|--11\/\/\/-13------11\/\/\/-13------11\/\/\/-13----------|
G|--12\/\/\/-14------12\/\/\/-14------12\/\/\/-14----------|
D|--13\/\/\/-15------13\/\/\/-15------13\/\/\/-15----------|
A|---------------0\/--------------0\/--------------0\/-----| x2
E|---------------------------------------------------------|
       Here he comes   with a dollar in his hand    he Represents     the epitomized man

e|---------11-13----|
B|-------11---------|
G|-----12-----------|
D|---13-------------|
A|------------------|
E|------------------|

solo: w/ wah
e|----------------------------------------------|
B|----------------------------------------------|
G|---9------------------------------11----------|
D|---12----13--|-12h13p12---|-------9-----------|
A|-------------|---------14-|-x14---9-----------|
E|----------------------------------------------|

Chorus:
e|-----------------------------------------------------------|
B|--11\/\/\/-13------11\/\/\/-13------11\/\/\/-13------------|
G|--12\/\/\/-14------12\/\/\/-14------12\/\/\/-14------------|
D|--13\/\/\/-15------13\/\/\/-15------13\/\/\/-15------------|
A|---------------0\/--------------0\/--------------0\/-------| x2
E|-----------------------------------------------------------|
Here he comes   with a dollar in his hand    he Represents     the hard workin' man

Outro:
e|---------11-13---------------11------------------11-13-------11-13/15------|
B|-------11-----13-10--------11---13b-13b-11-----11----------11--------13----|
G|-----12------------10----12------------------12----------12----------------|
D|---13------------------13------------------13----------13------------------|
A|---------------------------------------------------------------------------|
E|---------------------------------------------------------------------------|

e|---------11----------------11--------------------11--------------------------------------|
B|-------11---13-13-10-----11---13-10-10-10------11---13-10-10-10---11-11-11-11-11-11-13---|
G|-----12----------------12--------10-10-10----12--------10-10-10---12-12-12-12-12-12-14---|
D|---13----------------13--------------------13---------------------13-13-13-13-13-13-15---|
A|-----------------------------------------------------------------------------------------|
E|-----------------------------------------------------------------------------------------|
Composição de Larry LaLonde / Les Claypool / Primus / Tim Herb Alexander
154 exibições
    • ½ Tom
    • A
    • Bb
    • B
    • C
    • Db
    • D
    • Eb
    • E
    • F
    • F#
    • G
    • Ab
  • Adicionar à lista

    0 comentários

    Ver todos os comentários

    Conseguiu tocar?

    0 Tocaram 0 Ainda não

    Grave um vídeo tocando Del Davis Tree Farm e nos envie!

    00:00 / 00:00
    outros vídeos desta música
    repetir qualidade Automático
    Outros vídeos desta música
    00:00 / 00:00
    Automático

    Cifra Club Pro

    Aproveite o Cifra Club com benefícios exclusivos e sem anúncios
    Cifra Club Pro
    Aproveite o Cifra Club com benefícios exclusivos e sem anúncios
    OK