Cifra Club

Devil Went Down To Georgia

Primus

Cifra: Principal (violão e guitarra)
tom: E
>This is the way I play it and to me it sounds right.

>>Intro

>E-------------------------------|
>B----9------9---15/-13-11-------|
>G----8------8---14/-12-10-------|
>D-------------------------------|
>A-------------------------------|
>D-------------------------------|

>>Fig1

     D            C                              D
>E-------------------------------------------------------|
>B----------------------------------------------------3--|
>G--7777777777--55555555555---------------------------2--|
>D--7777777777--55555555555---------------------------0--|
>A--5555555555--33333333333-----5-3-1-0-----------0-3----|
>D-----------------------------------------5-3-0---------|

>>Fig2

 A  C  D
"Oh Let Me Tell You What" "My Names Johnny"

>E-----------------------------------|
>B----------3------------------------|
>G----2-----2------------------------|
>D----2--2--0------------------------|
>A----0--3---------------------------|
>D-----------------------------------|

>>Fig3

 "Johnny Rosin Up Your Bow" 

>E----------------------------------------------------------------|
>B----------------------------------------------------------------|
>G---77777777--55555555--------------777777777-777777777--55555555|
>D---77777777--55555555--5555555555--777777777-777777777--55555555|
>A---55555555--33333333--5555555555--555555555-555555555--33333333|
>D----------------------5555555555--------------------------------|

>>

   A   G F E D
"...Devil Gets Your Soul"

>E-------------------|
>B-------------------|
>G--2----------------|
>D--2---5-3-2-0------|
>A--0---5-3-2-0------|
>D------5-3-2-0------|

>>Fig4 

"Sounded Just Like This." Devils Band playing

>E----------------------------------------------|
>B--1515151515-1818181818-1717171717-1616161616-|
>G----------------------------------------------|
>D----------------------------------------------|
>A----------------------------------------------|
>D----------------------------------------------|

>>   D F E G  D F E D#

>E--------------------|
>B--------------------|
>G--------------------|

 repeat 7 times then chords

 A C D, A C D

>D--0-3-2-5--0-3-2-1--|               "MNJ" part

>A--0-3-2-5--0-3-2-1--|             Heavy Distortion

>D--0-3-2-5--0-3-2-1--|

>>Fig5 

"Fire On The Mountain...."

>E---------------------------------------------|
>B---------------------------------------------|
>G--7----7-7---5----5-5----7----7-7---5----5-5-|
>D--7----7-7---5----5-5----7----7-7---5----5-5-|
>A--5----5-5---3----3-3----5----5-5---3----3-3-|
>D---------------------------------------------|

>>Fig6 Johnny Playing

>Chords

 D C D C D C A A A
 then end with "My Name Is Johnny" part twice

>>Fig 7

 chords D C D C D C

>  ending

>E---------------------------------------------------|
>B---------------------------------------------------|
>G--7-5-3-2--7-5-3-2--7-5-3-2--7-5-3-2----------3-3--|
>D--7-5-3-2--7-5-3-2--7-5-3-2--7-5-3-2---5-4-0--2-2--|
>A--5-3-1-0--5-3-1-0--5-3-1-0--5-3-1-0---5-4-0--0-0--|
>D---------------------------------------5-4-0-------|

>>Intro>Fig1 x 1>Fig2 x 2>Fig3 x 1>Fig1 x 1>Fig4 x 1>Fig5 x
 1>Fig6 x 1>Fig5 x 1>Fig7

(chords)with ending

>>Just listen to the song or get the lyrics and its easier to figure out.
00:00 / 00:00
Outros vídeos desta música
Repetir
Outros vídeos desta música
Composição de Les Claypool / Primus
Colaboração e revisão:
  • samuel lima
6.057 exibições
    • ½ Tom
    • A
    • Bb
    • B
    • C
    • Db
    • D
    • Eb
    • E
    • F
    • F#
    • G
    • Ab
  • Adicionar à lista

    0 comentários

    Ver todos os comentários

    Conseguiu tocar?

    0 Tocaram 3 Ainda não

    Grave um vídeo tocando Devil Went Down To Georgia e nos envie!

    00:00 / 00:00

    Cifra Club Pro

    Aproveite o Cifra Club com benefícios exclusivos e sem anúncios
    Cifra Club Pro
    Aproveite o Cifra Club com benefícios exclusivos e sem anúncios
    OK