Cifra Club

Aprenda

Eletric Uncle Sam

Primus

Cifra: Principal (violão e guitarra)
tom: G
Intro Baixo:
|--------------------=
|---------------------
|---------------------
|-5-4-3--5-4-3--5-4-3-

Intro guitarra
|------------15~~-----
|---------------------
|---------------------
|---------------------
|---------------------
|---------------------Subindo volume da guitarra

Intro Refrão:
|---------------------------
|---------------------------
|-9---9-9-7-9-7-7-7-7-7-7-7-
|-9---9-9-7-9---------------
|---------------------------
|---------------------------

Verso(com Step(fade in em cada nota))
|----------------7~--------------|
|--------8~----------------------|
|-9------------------------------|
|--------------------------------|
|--------------------------------|
|--------------------------------|X2

|----------------14~-------------|
|--------15~-----12~-------------|
|--------12~---------------------|
|-14-----------------------------|
|--------------------------------|
|--------------------------------|X2

Refrão
Verso
Refrão

Pós Refrão

|--------------------------------|
|--------------------------------|
|--------------------------------|
|--------------5--5--------------|
|-7--7--5--7---5--5--------------|
|-7--7--5--7---------------------|
Composição de Primus
1.453 exibições
    • ½ Tom
    • A
    • Bb
    • B
    • C
    • Db
    • D
    • Eb
    • E
    • F
    • F#
    • G
    • Ab
  • Adicionar à lista

    0 comentários

    Ver todos os comentários

    Conseguiu tocar?

    0 Tocaram 0 Ainda não

    Grave um vídeo tocando Eletric Uncle Sam e nos envie!

    00:00 / 00:00
    outros vídeos desta música
    repetir qualidade Automático
    Outros vídeos desta música
    00:00 / 00:00
    Automático

    Cifra Club Pro

    Aproveite o Cifra Club com benefícios exclusivos e sem anúncios
    Cifra Club Pro
    Aproveite o Cifra Club com benefícios exclusivos e sem anúncios
    OK