Cifra Club

Aprenda

Golden Boy

Primus

Cifra: Principal (violão e guitarra)
tom: A
Alright, just a few things to straighten out here...
pitch in what little bit I have. It's just the intro, main riff and verse, but it's a 
song to jam to if you're looking for something funky.

Legend:
h = hammer on
/ or \ = slide
x = dead string or muted string
Standard Tuning

Intro:
The bass starts playing, guitar comes in in the 3rd measure playing on the off beats
e----------------|
B----------------|
G----------------| 2x
D--7--7--7--7----|
A--6--6--6--6----|
E--7--7--7--7----|

Main Riff:
e-------------------------------------------------------|
B-------------------------------------------------------|
G---------------------------------------------7-7-------|
D--7\-------6h7-----------------6h7----------------9\---|
A--6\---6h7------xx--5-5----6h7-------xx-7/9------------|
E--7\---------------------------------------------------|

e-------------------------------------------------------|
B-------------------------------------------------------|
G-------------------------------------------------------|
D--7\-------6h7-----------------6h7-------------9-------|
A--6\---6h7------xx--5-6-7--6h7-------xx-7/9------------|
E--7\---------------------------------------------------|

Verse:
e-------------------------------------------------------|
B-------------------------------------------------------|
G--------------------------------------------5-5--------|
D--5\-------4h5--xx-5----------4h5---------------7\-----|
A--4\---4h5-----------3----4h5------xx--5/7-------------|
E--5\---------------------------------------------------|

e-------------------------------------------------------|
B-------------------------------------------------------|
G-------------------------------------------------------|
D--5\-------4h5--xx-5----------4h5-----------7----------|
A--4\---4h5-----------3----4h5------xx--5/7-------------|
E--5\---------------------------------------------------|

The outro is basically the same riff except an octave up if I'm not mistaken, and once 
a while throughout the song Ler throws in some funky fills.

Sorry I don't have the solo tabbed out, I haven't had a chance to get it done so if 
else has it feel free to add it. Any constructive comments are welcome.
Composição de Brain / Larry LaLonde / Les Claypool / Primus
325 exibições
    • ½ Tom
    • A
    • Bb
    • B
    • C
    • Db
    • D
    • Eb
    • E
    • F
    • F#
    • G
    • Ab
  • Adicionar à lista

    0 comentários

    Ver todos os comentários

    Conseguiu tocar?

    0 Tocaram 0 Ainda não

    Grave um vídeo tocando Golden Boy e nos envie!

    00:00 / 00:00
    outros vídeos desta música
    repetir qualidade Automático
    Outros vídeos desta música
    00:00 / 00:00
    Automático

    Cifra Club Pro

    Aproveite o Cifra Club com benefícios exclusivos e sem anúncios
    Cifra Club Pro
    Aproveite o Cifra Club com benefícios exclusivos e sem anúncios
    OK