Cifra Club

Breathe

The Prodigy

Cifra: Principal (violão e guitarra)
Selo Cifra Club: esta cifra foi revisada para atender aos critérios oficiais da nossa Equipe de Qualidade.
tom: F
E|---------------------------------------------------------------------------
B|--------------------------------------------------------------------------- 
G|--------------------------------------------------------------------------- 
D|-----------------4-------4---------------0---0---0--0--0------------------- 
A|-6---6---6---6-------8-------6---8---10------------------------------------ 
E|--------------------------------------------------------------------------- 

 
E|-6-------------------------------5---------------4---------------3----------
B|-6-------------------------------5---------------4---------------4----------
G|-6-------------------------------5---------------4---------------3----------
D|-8-------------------------------7---------------6---------------5---------- 
A|-8-------------------------------7---------------6---------------6---------- 
E|-6-------------------------------5---------------4---------------3---------- 
       breathe the pressure          come play my game, I'll test ya 
    come                            play            my              game 

E|------------------------------------- 
B|------------------------------------- 
G|-0---------------2-------3----------- 
D|------------------------------------- 
A|------------------------------------- 
E|------------------------------------- 
   phsychosomatic, addict, insane 
   phsycho      -somatic, addict, insane

E|------------------------------------------------------------- 
B|------------------------------------------------------------- 
G|------------------------------------------------------------- 
D|--10--10--10--10---10-/--9--9-9-/--7-/--6-6-/--7------------- 
A|---8---8---8---8----8-/--7--7-7-/--5-/--4-4-/--5------------- 
E|-------------------------------------------------------------

Outros vídeos desta música
    10.773 exibições
      • ½ Tom
      • A
      • Bb
      • B
      • C
      • Db
      • D
      • Eb
      • E
      • F
      • F#
      • G
      • Ab
    • Adicionar à lista

    Afinação da cifra

    Afinador online

      0 comentários

      Ver todos os comentários

      Entre para o Cifra Club PRO

      Tenha acesso a benefícios exclusivos no App e no Site

      • Chega de anúncios

      • Badges exclusivas

      • Mais recursos no app do Afinador

      • Atendimento Prioritário

      • Aumente seu limite de lista

      • Ajude a produzir mais conteúdo

      Cifra Club Pro

      Aproveite o Cifra Club com benefícios exclusivos e sem anúncios
      Cifra Club Pro
      Aproveite o Cifra Club com benefícios exclusivos e sem anúncios
      Ops (: Contenido disponible sólo en portugués.
      OK