Cifra Club

Nasty

The Prodigy

Cifra: Principal (violão e guitarra)
Selo Cifra Club: esta cifra foi revisada para atender aos critérios oficiais da nossa Equipe de Qualidade.
tom: A
E|----|-------------------------------------------|
B|----|-------------------------------------------|
G|----|-------------------------------------------|----10---9---|
D|----|-----3---2---------------------------------|----10---9---|
A|----|-2------------2---5----5---5---5---5---5---|
E|----|-------------------------------------------| OR....


  Intro/Verse                                                                 

E|----|-------------------------------------------|
B|----|-------------------------------------------|
G|----|-------------------------------------------|
D|----|-----3---2---0-----------------------------|
A|----|-5----------------2----2---2---2---2---2---|
E|----|-------------------------------------------|
                                                                              

E|----|-------------------------------------------|
B|----|-------------------------------------------|
G|----|-------------------------------------------|
D|----|-----3---2---0-----------------------------|
A|----|-5----------------2----2---2---3---5---2---|
E|----|-------------------------------------------|


  Verse End                                                                   



E|----|----------------------------------------------|--|
B|----|----------------------------------------------|--|
G|----|----------------------------------------------|--|
D|----|----------------------------------------------|--|
A|----|-2---2---3---5---2------2---2---3---5---3/5---|--|
E|----|----------------------------------------------|--|


  Break                                                                      

E|----|-----------------------------------------------------------|--|
B|----|-----10/12-----10--8---6---4-----4---8----4---8---10-------|--|
G|----|-4---9-/11-----9---7---5---3-----3---7----3---7---9---4----|--|
D|----|-4---7-/9------7---5---3---1-----1---5----1---5---7---4----|--|
A|----|-2---7-/9------7---5---3---1-----1---5----1---5---7---2----|--|
E|----|-----------------------------------------------------------|--|
                          


                                                    
E|----|-----------|--|
B|----|-----------|--|
G|----|-----------|--|
D|----|-4---------|--|
A|----|-2---------|--|
E|----|-2---------|--|
      A
Outros vídeos desta música
    12 exibições
      • ½ Tom
      • A
      • Bb
      • B
      • C
      • Db
      • D
      • Eb
      • E
      • F
      • F#
      • G
      • Ab
    • Adicionar à lista

    Afinação da cifra

    Afinador online

      0 comentários

      Ver todos os comentários

      Entre para o Cifra Club PRO

      Tenha acesso a benefícios exclusivos no App e no Site

      • Chega de anúncios

      • Badges exclusivas

      • Mais recursos no app do Afinador

      • Atendimento Prioritário

      • Aumente seu limite de lista

      • Ajude a produzir mais conteúdo

      Cifra Club Pro

      Aproveite o Cifra Club com benefícios exclusivos e sem anúncios
      Cifra Club Pro
      Aproveite o Cifra Club com benefícios exclusivos e sem anúncios
      Ops (: Contenido disponible sólo en portugués.
      OK