Cifra Club

Omen

The Prodigy

Cifra: Principal (violão e guitarra)
Selo Cifra Club: esta cifra foi revisada para atender aos critérios oficiais da nossa Equipe de Qualidade.
tom: D
1 Guitarra

E |----------18--19--18--19--18--|------------------------------|
B |--12--------------------------|--15------14--15--14--15--19--|
G |------------------------------|------------------------------|
D |------------------------------|------------------------------|
A |------------------------------|------------------------------|
E |------------------------------|------------------------------|

----------18--19--18--19--18--|----------18--19-18-19-------|
--12--------------------------|--15-------------------------|
------------------------------|-----------------------------|
------------------------------|-----------------------------|
------------------------------|-----------------------------|
------------------------------|-----------------------------|

----------18--19--18--19--18--|------------------------------|
--12--------------------------|--15------14--15--14--15--19--|
------------------------------|------------------------------|
------------------------------|------------------------------|
------------------------------|------------------------------|
------------------------------|------------------------------|

----------18--19--18--19--18--|-----------------------|
--12--------------------------|--15------14-----------|
------------------------------|-----------------------|
------------------------------|-----------------------|
------------------------------|-----------------------|
------------------------------|-----------------------|

----------18--19--18--19--18--|------------------------------|
--12--------------------------|--15------14--15--14--15--19--|
------------------------------|------------------------------|
------------------------------|------------------------------|
------------------------------|------------------------------|
------------------------------|------------------------------|

----------18--19--18--19--18--|------------------------------|
--12--------------------------|--15------14--15--14--15--19--|
------------------------------|------------------------------|
------------------------------|------------------------------|
------------------------------|------------------------------|
------------------------------|------------------------------|

----------18--19--18--19--18--|------------------------------|
--12--------------------------|--15------14--15--14--15--19--|
------------------------------|------------------------------|
------------------------------|------------------------------|
------------------------------|------------------------------|
------------------------------|------------------------------|

----------18--19--18--19--18--|----------18--19-18-19-------|
--12--------------------------|--15-------------------------|
------------------------------|-----------------------------|
------------------------------|-----------------------------|
------------------------------|-----------------------------|
------------------------------|-----------------------------|

----------18--19--18--19--18--|------------------------------|
--12--------------------------|--15------14--15--14--15--19--|
------------------------------|------------------------------|
------------------------------|------------------------------|
------------------------------|------------------------------|
------------------------------|------------------------------|

----------18--19--18--19-----|-------|---------------------------------|
--12-------------------------|-------|---------------------------------|
-----------------------------|-------|---------------------------------|
-----------------------------|-------|---------------------------------|
-----------------------------|-------|---------------------------------|
-----------------------------|-------|--7----7----7----7-7----7----7---|

---------------------------------|---------------------------------|
---------------------------------|---------------------------------|
---------------------------------|---------------------------------|
---------------------------------|---------------------------------|
---------------------------------|---------------------------------|
--7----7----7----7-7----7----7---|--7----7----7----7-7----7----7---|

---------------------------------|---------------------------------|
---------------------------------|---------------------------------|
---------------------------------|---------------------------------|
---------------------------------|---------------------------------|
---------------------------------|---------------------------------|
--7----7----7----7-7----7----7---|--7----7----7----7-7----7----7---|

---------------------------------|---------------------------------|
---------------------------------|---------------------------------|
---------------------------------|---------------------------------|
---------------------------------|---------------------------------|
---------------------------------|---------------------------------|
--7----7----7----7-7----7----7---|--3----3----3----3-3----3----3---|

---------------------------------|---------------------------------|
---------------------------------|---------------------------------|
---------------------------------|---------------------------------|
---------------------------------|---------------------------------|
---------------------------------|---------------------------------|
--5----5----5----5-5----5----5---|--0----0----0----0-0----0----0---|

---------------------------------|---------------------------------|
---------------------------------|---------------------------------|
---------------------------------|---------------------------------|
---------------------------------|---------------------------------|
---------------------------------|---------------------------------|
--0----0----0----0-0----0----0---|--3----3----3----3-3----3----3---|

---------------------------------|---------------------------------|
---------------------------------|---------------------------------|
---------------------------------|---------------------------------|
---------------------------------|---------------------------------|
---------------------------------|---------------------------------|
--5----5----5----5-5----5----5---|--7----7----7----7-7----7----7---|

---------------------------------|---------------------------------|
---------------------------------|---------------------------------|
---------------------------------|---------------------------------|
---------------------------------|---------------------------------|
---------------------------------|---------------------------------|
--7----7----7----7-7----7----7---|--3----3----3----3-3----3----3---|

---------------------------------|---------------------------------|
---------------------------------|---------------------------------|
---------------------------------|---------------------------------|
---------------------------------|---------------------------------|
---------------------------------|---------------------------------|
--5----5----5----5-5----5----5---|--0----0----0----0-0----0----0---|


--------------------------------|---------------------------------|
--------------------------------|---------------------------------|
--------------------------------|---------------------------------|
--------------------------------|---------------------------------|
--------------------------7\----|--5----5----5----5-5----5----5---|
--0----0----0----0-0----0-5\----|--3----3----3----3-3----3----3---|

---------------------------------|----------18--19--18--19--18--|
---------------------------------|--12--------------------------|
---------------------------------|------------------------------|
---------------------------------|------------------------------|
--7----7----7----7-7----7----7---|------------------------------|
--5----5----5----5-5----5----5---|------------------------------|

------------------------------|----------18--19--18--19--18--|
--15------14--15--14--15--19--|--12--------------------------|
------------------------------|------------------------------|
------------------------------|------------------------------|
------------------------------|------------------------------|
------------------------------|------------------------------|

-----------------------|----------18--19--18--19--18--|
--15------14-----------|--12--------------------------|
-----------------------|------------------------------|
-----------------------|------------------------------|
-----------------------|------------------------------|
-----------------------|------------------------------|

------------------------------|----------18--19--18--19--18--|
--15------14--15--14--15--19--|--12--------------------------|
------------------------------|------------------------------|
------------------------------|------------------------------|
------------------------------|------------------------------|
------------------------------|------------------------------|

----------18--19-19-18-18-19-19-18-18-|----------18--19--18--19--18--|
--15----------------------------------|--12--------------------------|
--------------------------------------|------------------------------|
--------------------------------------|------------------------------|
--------------------------------------|------------------------------|
--------------------------------------|------------------------------|

------------------------------|----------18--19--18--19--18--|
--15------14--15--14--15--19--|--12--------------------------|
------------------------------|------------------------------|
------------------------------|------------------------------|
------------------------------|------------------------------|
------------------------------|------------------------------|

-----------------------|----------18--19--18--19--18--|
--15------14-----------|--12--------------------------|
-----------------------|------------------------------|
-----------------------|------------------------------|
-----------------------|------------------------------|
-----------------------|------------------------------|

------------------------------|----------18--19--18--19--18--|
--15------14--15--14--15--19--|--12--------------------------|
------------------------------|------------------------------|
------------------------------|------------------------------|
------------------------------|------------------------------|
------------------------------|------------------------------|

----------19-----------|--------------------------|--------------------------|
--15-------------------|--------------------------|--------------------------|
-----------------------|--------------------------|--------------------------|
-----------------------|--4--4-4--4-------4-------|--4--4-4--4-------4-------|
-----------------------|--2--2-2--2----x--2--2----|--2--2-2--2----x--2-------|
-----------------------|---------------x-----0----|---------------x----------|

-----|-----|--------------------------|--------------------------|-----|-----|
-----|-----|--------------------------|--------------------------|-----|-----|
-----|-----|--------------------------|--------------------------|-----|-----|
-----|-----|--4--4-4--4-------4-------|--4--4-4--4-------4-------|-----|-----|
-----|-----|--2--2-2--2----x--2--2----|--2--2-2--2----x--2-------|-----|-----|
-----|-----|---------------x-----0----|---------------x----------|-----|-----|

-----|-----|-----|-----|---------------------|-----|-----|-----|
-----|-----|-----|-----|---------------------|-----|-----|-----|
-----|-----|-----|-----|---------------------|-----|-----|-----|
-----|-----|-----|-----|---------------------|-----|-----|-----|
-----|-----|-----|-----|--9\-----------------|-----|-----|-----|
-----|-----|-----|-----|--7\-----------------|-----|-----|-----|

---------------------------------|---------------------------------|
---------------------------------|---------------------------------|
---------------------------------|---------------------------------|
---------------------------------|---------------------------------|
---------------------------------|---------------------------------|
--7----7----7----7-7----7----7---|--7----7----7----7-7----7----7---|

---------------------------------|---------------------------------|
---------------------------------|---------------------------------|
---------------------------------|---------------------------------|
---------------------------------|---------------------------------|
---------------------------------|---------------------------------|
--3----3----3----3-3----3----3---|--5----5----5----5-5----5----5---|

---------------------------------|---------------------------------|
---------------------------------|---------------------------------|
---------------------------------|---------------------------------|
---------------------------------|---------------------------------|
---------------------------------|---------------------------------|
--0----0----0----0-0----0----0---|--0----0----0----0-0----0----0---|

---------------------------------|-------------------------------|
---------------------------------|-------------------------------|
---------------------------------|-------------------x---x-------|
---------------------------------|-----------------x-x-x-x-2-----|
---------------------------------|-----------------x-x-x-x----0--|
--3----3----3----3-3----3----3---|--5----5----5----x---x---------|

---------------------------------|---------------------------------|
---------------------------------|---------------------------------|
---------------------------------|---------------------------------|
---------------------------------|---------------------------------|
---------------------------------|---------------------------------|
--7----7----7----7-7----7----7---|--7----7----7----7-7----7----7---|

---------------------------------|---------------------------------|
---------------------------------|---------------------------------|
---------------------------------|---------------------------------|
---------------------------------|---------------------------------|
---------------------------------|---------------------------------|
--3----3----3----3-3----3----3---|--5----5----5----5-5----5----5---|

---------------------------------|--------------------------------|
---------------------------------|--------------------------------|
---------------------------------|--------------------------------|
---------------------------------|--------------------------------|
---------------------------------|--------------------------7\----|
--0----0----0----0-0----0----0---|--0----0----0----0-0----0-5\----|

---------------------------------|---------------------------------|
---------------------------------|---------------------------------|
---------------------------------|---------------------------------|
---------------------------------|---------------------------------|
--5----5----5----5-5----5----5---|--7----7----7----7-7----7----7---|
--3----3----3----3-3----3----3---|--5----5----5----5-5----5----5---|

----------18--19--18--19--18--|------------------------------|
--12--------------------------|--15------14--15--14--15--19--|
------------------------------|------------------------------|
------------------------------|------------------------------|
------------------------------|------------------------------|
------------------------------|------------------------------|

----------18--19--18--19--18--|-----------------------|
--12--------------------------|--15------14-----------|
------------------------------|-----------------------|
------------------------------|-----------------------|
------------------------------|-----------------------|
------------------------------|-----------------------|

----------18--19--18--19--18--|------------------------------|
--12--------------------------|--15------14--15--14--15--19--|
------------------------------|------------------------------|
------------------------------|------------------------------|
------------------------------|------------------------------|
------------------------------|------------------------------|

----------18--19--18--19--18--|----------18--19-19-18-18-19-19-18-18-|
--12--------------------------|--15----------------------------------|
------------------------------|--------------------------------------|
------------------------------|--------------------------------------|
------------------------------|--------------------------------------|
------------------------------|--------------------------------------|

--------------------------|--------------------------|
--------------------------|--------------------------|
--------------------------|--------------------------|
--4--4-4--4-------4-------|--4--4-4--4-------4-------|
--2--2-2--2----x--2--2----|--2--2-2--2----x--2-------|
---------------x-----0----|---------------x----------|

--------------------------|-----|--------------------------|
--------------------------|-----|--------------------------|
--------------------------|-----|--------------------------|
--4--4-4--4-------4-------|-----|--4--4-4--4-------4-------|
--2--2-2--2----x--2----2--|-----|--2--2-2--2----x--2--2----|
---------------x-------0--|-----|---------------x-----0----|

--------------------------|--------------------------|
--------------------------|--------------------------|
--------------------------|--------------------------|
--4--4-4--4-------4-------|--4--4-4--4-------4-------|
--2--2-2--2----x--2-------|--2--2-2--2----x--2----2--|
---------------x----------|---------------x-------0--|

--------------------------|-----|-----|-----------------------|
--------------------------|-----|-----|-----------------------|
--------------------------|-----|-----|-----------------------|
--4--4-4--4-------4-------|-----|-----|-----------------------|
--2--2-2--2----x--2-------|-----|-----|--7---6---5----3---2---|
---------------x----------|-----|-----|--5---4---3----1---0---|

-----------------------|-----------------------|---------------------------|
-----------------------|-----------------------|---------------------------|
-----------------------|-----------------------|-------------x---x---------|
-----------------------|-----------------------|-------------x-x-x-x-2-----|
--7---6---5----3---2---|--7---6---5----3---2---|--7---6---5--x-x-x-x----0--|
--5---4---3----1---0---|--5---4---3----1---0---|--5---4---3----x---x-------|

-----------------------|-----------------------|-----------------------|
-----------------------|-----------------------|-----------------------|
-----------------------|-----------------------|-----------------------|
-----------------------|-----------------------|-----------------------|
--7---6---5----3---2---|--7---6---5----3---2---|--7---6---5----3---2---|
--5---4---3----1---0---|--5---4---3----1---0---|--5---4---3----1---0---|

---------------------------|-----------------------|-----------------------|
---------------------------|-----------------------|-----------------------|
-------------x---x---------|-----------------------|-----------------------|
-------------x-x-x-x-2-----|-----------------------|-----------------------|
--7---6---5--x-x-x-x----0--|--7---6---5----3---2---|--7---6---5----3---2---|
--5---4---3----x---x-------|--5---4---3----1---0---|--5---4---3----1---0---|

-----------------------|---------------------------|-----|-----|-----|-----|
-----------------------|---------------------------|-----|-----|-----|-----|
-----------------------|-------------x---x---------|-----|-----|-----|-----|
-----------------------|-------------x-x-x-x-2-----|-----|-----|-----|-----|
--7---6---5----3---2---|--7---6---5--x-x-x-x----0--|-----|-----|-----|-----|
--5---4---3----1---0---|--5---4---3----x---x-------|-----|-----|-----|-----|

2 Guitarra

E |--------------------|-------------------|--------------------|
B |--------------------|-------------------|--------------------|
G |--------------------|-------------------|--7~----------------|
D |--9~----------------|-------------------|--------------------|
A |--------------------|-------------------|--------------------|
E |--------------------|-------------------|--------------------|

---------------------|----------------------------|----------------------------|
---------------------|----------------------------|----------------------------|
---------------------|----------------------------|----------------------------|
---------------------|----------------------------|-------------------------9--|
---------------7\----|--9--9-9--9-9--9--9--9-9--9-|--9--9-9--9-9-9--9--9-9-----|
---------------5\----|--7--7-7--7-7--7--7--7-7--7-|--7--7-7--7-7-7--7--7-7-----|

----------------------------|-----------------------------|
----------------------------|-----------------------------|
----------------------------|---------------x---x---------|
-------------------------5--|---------------x-x-x-x-2-----|
--5--5-5--5-5--5-5--5-5-----|--7--7-7--7-7--x-x-x-x----0--|
--3--5-3--3-3--3-3--3-3-----|--5--5-5--5-5----x---x-------|

----------------------------|----------------------------|
----------------------------|----------------------------|
----------------------------|----------------------------|
----------------------------|----------------------------|
--2--2-2--2-2--2--2--2-2--2-|--2--2-2--2-2--2--2--2-2--2-|
--0--0-0--0-0--0--0--0-0--0-|--0--0-0--0-0--0--0--0-0--0-|

----------------------------|----------------------------|
----------------------------|----------------------------|
----------------------------|----------------------------|
----------------------------|----------------------------|
--5--5-5--5-5--5--5--5-5--5-|--7--7-7--7-7--7--7--7-7--7-|
--3--3-3--3-3--3--3--3-3--3-|--5--5-5--5-5--5--5--5-5--5-|

----------------------------|----------------------------|
----------------------------|----------------------------|
----------------------------|----------------------------|
----------------------------|-------------------------9--|
--9--9-9--9-9--9--9--9-9--9-|--9--9-9--9-9-9--9--9-9-----|
--7--7-7--7-7--7--7--7-7--7-|--7--7-7--7-7-7--7--7-7-----|

----------------------------|--------------------------|
----------------------------|--------------------------|
----------------------------|--------------------------|
-------------------------5--|--------------------------|
--5--5-5--5-5--5-5--5-5-----|--7--7-7--7-7-------7\----|
--3--5-3--3-3--3-3--3-3-----|--5--5-5--5-5-------5\----|

----------------------------|----------------------------|
----------------------------|----------------------------|
----------------------------|----------------------------|
----------------------------|----------------------------|
--2--2-2--2-2--2--2--2-2--2-|--2--2-2--2-2--2--2--2-2--2-|
--0--0-0--0-0--0--0--0-0--0-|--0--0-0--0-0--0--0--0-0--0-|

----------------------------|-----------------------|
----------------------------|-----------------------|
----------------------------|-----------------------|
----------------------------|-----------------------|
--5--5-5--5-5--5--5--5-5--5-|--7---6---5----3---2---|
--3--3-3--3-3--3--3--3-3--3-|--5---4---3----1---0---|

----------14----------------14------|------------14----------------14------|
--12--12------12--15-14-12------12--|--15-14-12------12--15-14-12------12--|
------------------------------------|--------------------------------------|
------------------------------------|--------------------------------------|
------------------------------------|--------------------------------------|
------------------------------------|--------------------------------------|

------------14----------------14------|------------14----------------14------|
--15-14-12------12--15-14-12------12--|--15-14-12------12--15-14-12------12--|
--------------------------------------|--------------------------------------|
--------------------------------------|--------------------------------------|
--------------------------------------|--------------------------------------|
--------------------------------------|--------------------------------------|

------------14----------------14------|------------14----------------14------|
--15-14-12------12--15-14-12------12--|--15-14-12------12--15-14-12------12--|
--------------------------------------|--------------------------------------|
--------------------------------------|--------------------------------------|
--------------------------------------|--------------------------------------|
--------------------------------------|--------------------------------------|

--12----12----12--14--12----12----12--14--|
------------------------------------------|
-----------14------------------14---------|
-----14------------------14---------------|
------------------------------------------|
------------------------------------------|

--12----12----12--14--12----12----12--14--|----------14----------------14------|
------------------------------------------|--12--12------12--15-14-12------12--|
-----------14------------------14---------|------------------------------------|
-----14------------------14---------------|------------------------------------|
------------------------------------------|------------------------------------|
------------------------------------------|------------------------------------|

------------14----------------14------|------------14----------------14------|
--15-14-12------12--15-14-12------12--|--15-14-12------12--15-14-12------12--|
--------------------------------------|--------------------------------------|
--------------------------------------|--------------------------------------|
--------------------------------------|--------------------------------------|
--------------------------------------|--------------------------------------|

------------14----------------14------|------------14----------------14------|
--15-14-12------12--15-14-12------12--|--15-14-12------12--15-14-12------12--|
--------------------------------------|--------------------------------------|
--------------------------------------|--------------------------------------|
--------------------------------------|--------------------------------------|
--------------------------------------|--------------------------------------|

------------14----------------14------|
--15-14-12------12--15-14-12------12--|
--------------------------------------|
--------------------------------------|
--------------------------------------|
--------------------------------------|

--12----12----12--14--12----12----12--14--|
------------------------------------------|
-----------14------------------14---------|
-----14------------------14---------------|
------------------------------------------|
------------------------------------------|

--12----12----12--14--12----12----12--14--|----------14----------------14------|
------------------------------------------|--12--12------12--15-14-12------12--|
-----------14------------------14---------|------------------------------------|
-----14------------------14---------------|------------------------------------|
------------------------------------------|------------------------------------|
------------------------------------------|------------------------------------|

------------14----------------14------|------------14----------------14------|
--15-14-12------12--15-14-12------12--|--15-14-12------12--15-14-12------12--|
--------------------------------------|--------------------------------------|
--------------------------------------|--------------------------------------|
--------------------------------------|--------------------------------------|
--------------------------------------|--------------------------------------|

------------14----------------14------|----------------------------|
--15-14-12------12--15-14-12------12--|----------------------------|
--------------------------------------|----------------------------|
--------------------------------------|----------------------------|
--------------------------------------|--9--9-9--9-9--9--9--9-9--9-|
--------------------------------------|--7--7-7--7-7--7--7--7-7--7-|

----------------------------|----------------------------|
----------------------------|----------------------------|
----------------------------|----------------------------|
-------------------------9--|-------------------------5--|
--9--9-9--9-9-9--9--9-9-----|--5--5-5--5-5--5-5--5-5-----|
--7--7-7--7-7-7--7--7-7-----|--3--5-3--3-3--3-3--3-3-----|

-----------------------------|----------------------------|
-----------------------------|----------------------------|
---------------x---x---------|----------------------------|
---------------x-x-x-x-2-----|----------------------------|
--7--7-7--7-7--x-x-x-x----0--|--2--2-2--2-2--2--2--2-2--2-|
--5--5-5--5-5----x---x-------|--0--0-0--0-0--0--0--0-0--0-|

----------------------------|----------------------------|
----------------------------|----------------------------|
----------------------------|----------------------------|
----------------------------|----------------------------|
--2--2-2--2-2--2--2--2-2--2-|--5--5-5--5-5--5--5--5-5--5-|
--0--0-0--0-0--0--0--0-0--0-|--3--3-3--3-3--3--3--3-3--3-|

-----------------------------|----------------------------|
-----------------------------|----------------------------|
-----------------------------|----------------------------|
-----------------------------|----------------------------|
--7--7-7--7-7-x--7--x-x-7--7-|--9--9-9--9-9--9--9--9-9--9-|
--5--5-5--5-5-x--5--x-x-5--5-|--7--7-7--7-7--7--7--7-7--7-|

----------------------------|----------------------------|
----------------------------|----------------------------|
----------------------------|----------------------------|
-------------------------9--|-------------------------5--|
--9--9-9--9-9-9--9--9-9-----|--5--5-5--5-5--5-5--5-5-----|
--7--7-7--7-7-7--7--7-7-----|--3--5-3--3-3--3-3--3-3-----|

-----------------------------|----------------------------|
-----------------------------|----------------------------|
---------------x---x---------|----------------------------|
---------------x-x-x-x----2--|----------------------------|
--7--7-7--7-7--x-x-x-x-------|--2--2-2--2-2--2--2--2-2--2-|
--5--5-5--5-5----x---x-0-----|--0--0-0--0-0--0--0--0-0--0-|

----------------------------|----------------------------|
----------------------------|----------------------------|
----------------------------|----------------------------|
----------------------------|----------------------------|
--2--2-2--2-2--2--2--2-2--2-|--5--5-5--5-5--5--5--5-5--5-|
--0--0-0--0-0--0--0--0-0--0-|--3--3-3--3-3--3--3--3-3--3-|

--------------------------|----------------------|----------------------|
--------------------------|--14~-----------------|--14~-----------------|
--------------------------|----------------------|----------------------|
--------------------------|----------------------|----------------------|
--7--7-7--7-7-------7\----|----------------------|----------------------|
--5--5-5--5-5-------5\----|----------------------|----------------------|

-----------------------|---------------------------|----------------------|
-----------------------|---------------------------|--14~-----------------|
-----------------------|-------------x---x---------|----------------------|
-----------------------|-------------x-x-x-x-2-----|----------------------|
--7---6---5----3---2---|--7---6---5--x-x-x-x----0--|----------------------|
--5---4---3----1---0---|--5---4---3----x---x-------|----------------------|

----------------------|-----------------------|---------------------------|
--14~-----------------|-----------------------|---------------------------|
----------------------|-----------------------|-------------x---x---------|
----------------------|-----------------------|-------------x-x-x-x-2-----|
----------------------|--7---6---5----3---2---|--7---6---5--x-x-x-x----0--|
----------------------|--5---4---3----1---0---|--5---4---3----x---x-------|

-----|-----|-----|-----|-----|-----|-----|-----|-----|-----|-----|-----|-----|
-----|-----|-----|-----|-----|-----|-----|-----|-----|-----|-----|-----|-----|
-----|-----|-----|-----|-----|-----|-----|-----|-----|-----|-----|-----|-----|
-----|-----|-----|-----|-----|-----|-----|-----|-----|-----|-----|-----|-----|
-----|-----|-----|-----|-----|-----|-----|-----|-----|-----|-----|-----|-----|
-----|-----|-----|-----|-----|-----|-----|-----|-----|-----|-----|-----|-----|

-----|-----|-----|------------14----------------14------|
-----|-----|-----|--15-14-12------12--15-14-12------12--|
-----|-----|-----|--------------------------------------|
-----|-----|-----|--------------------------------------|
-----|-----|-----|--------------------------------------|
-----|-----|-----|--------------------------------------|

------------14----------------14------|
--15-14-12------12--15-14-12------12--|
--------------------------------------|
--------------------------------------|
--------------------------------------|
--------------------------------------|

--12----12----12--14--12----12----12--14--|
------------------------------------------|
-----------14------------------14---------|
-----14------------------14---------------|
------------------------------------------|
------------------------------------------|

--12----12----12--14--12----12----12--14--|----------14----------------14------|
------------------------------------------|--12--12------12--15-14-12------12--|
-----------14------------------14---------|------------------------------------|
-----14------------------14---------------|------------------------------------|
------------------------------------------|------------------------------------|
------------------------------------------|------------------------------------|

------------14----------------14------|------------14----------------14------|
--15-14-12------12--15-14-12------12--|--15-14-12------12--15-14-12------12--|
--------------------------------------|--------------------------------------|
--------------------------------------|--------------------------------------|
--------------------------------------|--------------------------------------|
--------------------------------------|--------------------------------------|

------------14----------------14------|----------------------------|
--15-14-12------12--15-14-12------12--|----------------------------|
--------------------------------------|----------------------------|
--------------------------------------|----------------------------|
--------------------------------------|--9--9-9--9-9--9--9--9-9--9-|
--------------------------------------|--7--7-7--7-7--7--7--7-7--7-|

----------------------------|----------------------------|
----------------------------|----------------------------|
----------------------------|----------------------------|
-------------------------9--|-------------------------5--|
--9--9-9--9-9-9--9--9-9-----|--5--5-5--5-5--5-5--5-5-----|
--7--7-7--7-7-7--7--7-7-----|--3--5-3--3-3--3-3--3-3-----|

-----------------------------|----------------------------|
-----------------------------|----------------------------|
---------------x---x---------|----------------------------|
---------------x-x-x-x-2-----|----------------------------|
--7--7-7--7-7--x-x-x-x----0--|--2--2-2--2-2--2--2--2-2--2-|
--5--5-5--5-5----x---x-------|--0--0-0--0-0--0--0--0-0--0-|

----------------------------|----------------------------|
----------------------------|----------------------------|
----------------------------|----------------------------|
----------------------------|----------------------------|
--2--2-2--2-2--2--2--2-2--2-|--5--5-5--5-5--5--5--5-5--5-|
--0--0-0--0-0--0--0--0-0--0-|--3--3-3--3-3--3--3--3-3--3-|

-----------------------------|-------------18---19---19--|
-----------------------------|--14~----------------------|
-----------------------------|---------------------------|
-----------------------------|---------------------------|
--7--7-7--7-7-x--7--x-x-7--7-|---------------------------|
--5--5-5--5-5-x--5--x-x-5--5-|---------------------------|

----------------------|-------------18---19---19--|-----------------------|
--14~-----------------|--14~----------------------|-----------------------|
----------------------|---------------------------|-----------------------|
----------------------|---------------------------|-----------------------|
----------------------|---------------------------|--7---6---5----3---2---|
----------------------|---------------------------|--5---4---3----1---0---|

-------------18---19---19--|----------------------|-------------18---19---19--|
--14~----------------------|--14~-----------------|--14~----------------------|
---------------------------|----------------------|---------------------------|
---------------------------|----------------------|---------------------------|
---------------------------|----------------------|---------------------------|
---------------------------|----------------------|---------------------------|

----------------------|-----------------------|-----------------------|
--14~-----------------|-----------------------|-----------------------|
----------------------|-----------------------|-----------------------|
----------------------|-----------------------|-----------------------|
----------------------|--7---6---5----3---2---|--7---6---5----3---2---|
----------------------|--5---4---3----1---0---|--5---4---3----1---0---|

-----------------------|-----------------------|-----------------------|
-----------------------|-----------------------|-----------------------|
-----------------------|-----------------------|-----------------------|
-----------------------|-----------------------|-----------------------|
--7---6---5----3---2---|--7---6---5----3---2---|--7---6---5----3---2---|
--5---4---3----1---0---|--5---4---3----1---0---|--5---4---3----1---0---|

---------------------------|-----------------------|-----------------------|
---------------------------|-----------------------|-----------------------|
-------------x---x---------|-----------------------|-----------------------|
-------------x-x-x-x-2-----|-----------------------|-----------------------|
--7---6---5--x-x-x-x----0--|--7---6---5----3---2---|--7---6---5----3---2---|
--5---4---3----x---x-------|--5---4---3----1---0---|--5---4---3----1---0---|

-----------------------|---------------------------|-----------------------|
-----------------------|---------------------------|-----------------------|
-----------------------|-------------x---x---------|-----------------------|
-----------------------|-------------x-x-x-x-2-----|-----------------------|
--7---6---5----3---2---|--7---6---5--x-x-x-x----0--|--7---6---5----3---2---|
--5---4---3----1---0---|--5---4---3----x---x-------|--5---4---3----1---0---|

-----------------------|-----------------------|---------------------------|
-----------------------|-----------------------|---------------------------|
-----------------------|-----------------------|-------------x---x---------|
-----------------------|-----------------------|-------------x-x-x-x-2-----|
--7---6---5----3---2---|--7---6---5----3---2---|--7---6---5--x-x-x-x----0--|
--5---4---3----1---0---|--5---4---3----1---0---|--5---4---3----x---x-------|

-----|-----|-----|-----|-----|-----|-----|-----||
-----|-----|-----|-----|-----|-----|-----|-----||
-----|-----|-----|-----|-----|-----|-----|-----||
-----|-----|-----|-----|-----|-----|-----|-----||
-----|-----|-----|-----|-----|-----|-----|-----||
-----|-----|-----|-----|-----|-----|-----|-----||
Outros vídeos desta música
    1.414 exibições
      • ½ Tom
      • A
      • Bb
      • B
      • C
      • Db
      • D
      • Eb
      • E
      • F
      • F#
      • G
      • Ab
    • Adicionar à lista

    Afinação da cifra

    Afinador online

      0 comentários

      Ver todos os comentários

      Entre para o Cifra Club PRO

      Tenha acesso a benefícios exclusivos no App e no Site

      • Chega de anúncios

      • Badges exclusivas

      • Mais recursos no app do Afinador

      • Atendimento Prioritário

      • Aumente seu limite de lista

      • Ajude a produzir mais conteúdo

      Cifra Club Pro

      Aproveite o Cifra Club com benefícios exclusivos e sem anúncios
      Cifra Club Pro
      Aproveite o Cifra Club com benefícios exclusivos e sem anúncios
      Ops (: Contenido disponible sólo en portugués.
      OK