Cifra Club

Cansado

Projeto Sola

Cifra: Principal (violão e guitarra)
Selo Cifra Club: esta cifra foi revisada para atender aos critérios oficiais da nossa Equipe de Qualidade.
tom: C
[Intro]
 
   C             C
E|-------3---0---------3----------------------------|
B|-----1---3---------1---3-1------------------------|
G|---0-------------0--------------------------------|
D|--------------------------------------------------|
A|-3-------------3----------------------------------|
E|--------------------------------------------------|

[Primeira Parte]

   C         C         C          C
E|----------------------------------------------------------|
B|-1-1-------1-1-------1-1--------1-1-----------------------|
G|-------0---------0----------0----------0------------------|
D|----------------------------------------------------------|
A|-3---3-----3---3-----3---3------3---3---------------------|
E|----------------------------------------------------------|

   Am        Am        Am         Am
E|----------------------------------------------------------|
B|-1-1-------1-1-------1-1--------1-1-----------------------|
G|-------2---------2----------2----------2------------------|
D|----------------------------------------------------------|
A|-0---0-----0---0-----0---0------0---0---------------------|
E|----------------------------------------------------------|


C
Atrevo-me a chegar
   Am
Depois de tanto andar
    C
Com feridas nos pés
            Am
E chagas no coração


(2 parte - repete conforme a cifra)

   C         C         C          C
E|----------------------------------------------------------|
B|-1-1-------1-1-------1-1--------1-1-----------------------|
G|-------0---------0----------0----------0------------------|
D|----------------------------------------------------------|
A|-3---3-----3---3-----3---3------3---3---------------------|
E|----------------------------------------------------------|

  Am        Am        Am         Am
E|----------------------------------------------------------|
B|-1-1-------1-1-------1-1--------1-1-----------------------|
G|-------2---------2----------2----------2------------------|
D|----------------------------------------------------------|
A|-0---0-----0---0-----0---0------0---0---------------------|
E|----------------------------------------------------------|

 C
Pesado o fardo é
    Am
Vergonha e aflição
C
Miserável sou
            Am
Recorro ao teu perdão

[Terceira Parte]

   C         C         C          C
E|----------------------------------------------------------|
B|-1-1-------1-1-------1-1--------1-1-----------------------|
G|-------0---------0----------0----------0------------------|
D|----------------------------------------------------------|
A|-3---3-----3---3-----3---3------3---3---------------------|
E|----------------------------------------------------------|

   F         F         F          F
E|----------------------------------------------------------|
B|-1-1-------1-1-------1-1--------1-1-----------------------|
G|-------2---------2----------2----------2------------------|
D|-3---3-----3---3-----3---3------3---3---------------------|
A|----------------------------------------------------------|
E|----------------------------------------------------------|

  Am        Am        Am         Am
E|----------------------------------------------------------|
B|-1-1-------1-1-------1-1--------1-1-----------------------|
G|-------2---------2----------2----------2------------------|
D|----------------------------------------------------------|
A|-0---0-----0---0-----0---0------0---0---------------------|
E|----------------------------------------------------------|

    C
Cansado venho a ti
   F
Imploro o teu favor
    Am
Tem compaixão de mim
            F
Sou pobre e pecador

C
Rica salvação
F
Infinito amor
  Am                    F
Atenda o suplicar desta oração
 
   C             C
E|-------3---0---------3----------------------------|
B|-----1---3---------1---3-1------------------------|
G|---0-------------0--------------------------------|
D|--------------------------------------------------|
A|-3-------------3----------------------------------|
E|--------------------------------------------------|

Ôôôôô

( F  G  Am  G/B  C  G/B )
00:00 / 00:00
Outros vídeos desta música
Repetir
Outros vídeos desta música
22.623 exibições
    • ½ Tom
    • A
    • Bb
    • B
    • C
    • Db
    • D
    • Eb
    • E
    • F
    • F#
    • G
    • Ab
  • Adicionar à lista

Afinação da cifra

Afinador online

    0 comentários

    Ver todos os comentários

    Entre para o Cifra Club PRO

    Tenha acesso a benefícios exclusivos no App e no Site

    • Chega de anúncios

    • Mais recursos no app do Afinador

    • Atendimento Prioritário

    • Aumente seu limite de lista

    • Ajude a produzir mais conteúdo

    00:00 / 00:00

    Cifra Club Pro

    Aproveite o Cifra Club com benefícios exclusivos e sem anúncios
    Cifra Club Pro
    Aproveite o Cifra Club com benefícios exclusivos e sem anúncios
    OK