Cifra Club

Êxodo

Projeto Sola

Cifra: Principal (violão e guitarra)
Selo Cifra Club: esta cifra foi revisada para atender aos critérios oficiais da nossa Equipe de Qualidade.
tom: Dm
[Intro] Dm  C  Dm

Afinação D A D G A D

Parte 1
E|--------------------------------------|
B|--------------------------------------|
G|--------------------------------------|
D|----------3p0-------------------------|
A|--3h5---5-----5---3h5---5-------------|
E|------0--------------0---2p0----------|

Parte 2
E|---------------------x----x-----------|
B|---------------------x----x-----------|
G|---------------------x----x-----------|
D|-----------3p0-------5/7--7-----------|
A|--3h5---5-------3p0--3/5--5-----------|
E|------0--------------x----x-----------|

Parte 3
E|--------------------------------------|
B|--------------------------------------|
G|--------------------------5-----------|
D|-----------3p0-------5/7-----7/5p3p0--|
A|--3h5---5-------5---------------------|
E|------0-------------------------------|

[Primeira Parte]

Dm                 F
   O dia enfim chegou
                  Bb
O cordeiro foi cortado
    Gm           C  Dm
Ele vem pra nos visitar
                     F
Na porta o sangue está
                  Bb
No crepúsculo da tarde
     Gm          C    Dm
Ele vem pra nos libertar

[Pré-Refrão]

 Bb
Todo escravo será livre
 Gm
Nenhum choro se ouvirá
 Dm
Toda fome saciada
 C               Dm
Nossa voz Ele ouviu

( Dm )
E|--------------------------------------|
B|--------------------------------------|
G|--------------------------0-----------|
D|------0----3p0-------5/7-----7-5/3h0--|
A|--3h5---5-------3p0-------------------|
E|--------------------------------------|

[Refrão]

Dm
Não há Deus como o nosso Deus
 F
Nossa força e canção
  Bb
Grandes coisas Ele fez
Gm
   Seu reino é pra sempre

Dm
Não há Deus como o nosso Deus
 F
Nossa força e canção
  Bb
Grandes coisas Ele fez
Gm
   Seu reino é pra sempre

( Dm )

[Segunda Parte]

Dm                     F
   Na cruz o sangue está
                 Bb
É sexta-feira à tarde
    Gm         C      Dm
Ele veio para nos salvar
                   F
Esmagado o filho foi
                    Bb
Cristo está crucificado
    Gm     C       Dm
Morreu em nosso lugar

[Pré-Refrão]

 Bb
Sua vida derramou
   Gm
Nenhuma condenação há
Dm
Na montanha da caveira
    C          C      Dm
Ao nosso lado Deus está

[Refrão]

Dm
Não há Deus como o nosso Deus
 F
Nossa força e canção
  Bb
Grandes coisas Ele fez
Gm
   Seu reino é pra sempre

Dm
Não há Deus como o nosso Deus
 F
Nossa força e canção
  Bb
Grandes coisas Ele fez
Gm
   Seu reino é pra sempre

[Ponte]

Bb          C            Dm
   Pra nos dar sua doce graça
      Am           Bb C
Nos trouxe a redenção
        Dm               Am
Não há mais razão pra chorar

( Dm )
E|--------------------------------------|
B|--------------------------------------|
G|--------------------------0-----------|
D|------0----3p0-------5/7-----7-5/3h0--|
A|--3h5---5-------3p0-------------------|
E|--------------------------------------|

[Refrão]

Dm
Não há Deus como o nosso Deus
 F
Nossa força e canção
  Bb
Grandes coisas Ele fez
Gm
   Seu reino é pra sempre

Dm
Não há Deus como o nosso Deus
 F
Nossa força e canção
  Bb
Grandes coisas Ele fez
Gm
   Seu reino é pra sempre
Outros vídeos desta música
103.917 exibições
    • ½ Tom
    • Am
    • Bbm
    • Bm
    • Cm
    • C#m
    • Dm
    • Ebm
    • Em
    • Fm
    • F#m
    • Gm
    • G#m
  • Adicionar à lista

Afinação da cifra

Afinador online

    0 comentários

    Ver todos os comentários

    Entre para o Cifra Club PRO

    Tenha acesso a benefícios exclusivos no App e no Site

    • Chega de anúncios

    • Mais recursos no app do Afinador

    • Atendimento Prioritário

    • Aumente seu limite de lista

    • Ajude a produzir mais conteúdo

    Cifra Club Pro

    Aproveite o Cifra Club com benefícios exclusivos e sem anúncios
    Cifra Club Pro
    Aproveite o Cifra Club com benefícios exclusivos e sem anúncios
    OK