Cifra Club

A Voz e o Violão

Projota

Cifra: Principal (violão e guitarra)
Selo Cifra Club: esta cifra foi revisada para atender aos critérios oficiais da nossa Equipe de Qualidade.
tom: A
[Intro] A7M  E9  A7M  E9

   A7M                       
E|----------------------------------------------------|
B|----------------------------------------------------|
G|--------x--4-6p4----------------x--4-6p4------------|
D|-4/6-6--x--------4-------4/6-6--x--------4----------|
A|-0---0--x--0-0---0-------0---0--x--0-0---0----------|
E|----------------------------------------------------|

   E9
E|----------------------------------------------------|
B|----------------------------------------------------|
G|----------------------------------------------------|
D|--------x-----------------------x-------------------|
A|-6/7-7--x--7-6/2--2------6/7-7--x--7-6/2--2---------|
E|-0---0--x--0-0----0------0---0--x--0-0----0---------|

[Primeira Parte]

                          A7M
Você me lembra os filmes mais malucos que eu já vi
                          
Daqueles que a gente quebra a cabeça pra entender
                   E9
Mas eu não entendi, nem eles, nem você

Até que eu vi que as melhores coisas da vida
                                     A7M
Não são pra entender, são pra sentir

Quando eu te vi, foi fácil me apaixonar

Ela é do tipo de pessoa que anima o lugar
   E9
Assiste Friends, joga truco e só sabe sonhar

Mano, se ela jogar FIFA comigo, eu vou casar
    A7M
Cê me tirou do tédio, da vida de marasmo

Te entendo só de te olhar, eu te respondo e fico pasmo
    E9
Nasci no seu carinho, morri no seu sarcasmo
 
Falar que você é linda até seria pleonasmo
            A7M
E o que eu fui, eu tentei tudo o que eu passei
  
se fiz ou pensei já nem sei
         E9
Só sei que eu te mando um meme

Cê me manda um outro meme

Só pra superar o meme que eu mandei

[Refrão]

 A7M                        F#m11
Fala que a gente ainda tem solução
                           E9
Você é a voz, eu sou o violão

Vamos fazer um show pro mundo
       A7M                        F#m11
Então fala que a gente ainda tem solução
                           E9
Você é a voz, eu sou o violão

Vamos fazer um filho, vamos fazer um filho

Pra ele tocar percussão

 A7M                         F#m11
Fala que a gente ainda tem solução
                           E9
Você é a voz, eu sou o violão

Vamos fazer um show pro mundo
       A7M                          F#m11
Então fala que a gente ainda tem solução
                           E9
Você é a voz, eu sou o violão

Vamos fazer um filho, vamos fazer um filho

Pra ele tocar percussão

[Segunda Parte]

   A7M
Você foi paz em meio ao caos
                                                  E9
Entre o barulho dos bons e o silêncio dos maus, é
 
Foi onde te encontrei, São Paulo, 20 graus
                                          A7M
Tava inseguro e no caminho eu comprei um Halls

Eu tive que ser ágil quando eu tive um presságio
                                       E9
Percebi que a vida é apenas um estágio

Nessa vida frágil, copiei até o seu jeito de rir
          
Tomara que não seja plágio
   A7M
Eu enfrentei meu medo mais sombrio só pra te ter 
                                                    E9
E hoje meu medo mais sombrio é acordar e não te ver
 
E todo dia às 11:11 eu bato palmas

Pra aplaudir as horas gêmeas como nossas almas
       A7M
Sou um admirador das voltas que esse mundo dá

Já nem reclamo mais, eu só espero ele girar
     E9
E o mundo que girou pra te levar

Continuou girando até você voltar
                 
E agora eu tô aqui

[Refrão]

 A7M                              F#m11
Fala que a gente ainda tem solução
                           E9
Você é a voz, eu sou o violão

Vamos fazer um show pro mundo
       A7M                              F#m11
Então fala que a gente ainda tem solução
                           E9
Você é a voz, eu sou o violão

Vamos fazer um filho, vamos fazer um filho

Pra ele tocar percussão

 A7M                              F#m11
Fala que a gente ainda tem solução
                           E9
Você é a voz, eu sou o violão

Vamos fazer um show pro mundo
       A7M                              F#m11
Então fala que a gente ainda tem solução
                           E9
Você é a voz, eu sou o violão

Vamos fazer um filho, vamos fazer um filho

Pra ele tocar percussão

[Final] A7M  E9  A7M  E9

   A                       
E|----------------------------------------------------|
B|----------------------------------------------------|
G|--------x--4-6p4----------------x--4-6p4------------|
D|-4/6-6--x--------4-------4/6-6--x--------4----------|
A|-0---0--x--0-0---0-------0---0--x--0-0---0----------|
E|----------------------------------------------------|

   E
E|----------------------------------------------------|
B|----------------------------------------------------|
G|----------------------------------------------------|
D|--------x-----------------------x-------------------|
A|-6/7-7--x--7-6/2--2------6/7-7--x--7-6/2--2---------|
E|-0---0--x--0-0----0------0---0--x--0-0----0---------|
Outros vídeos desta música
    36.551 exibições
      • ½ Tom
      • A
      • Bb
      • B
      • C
      • Db
      • D
      • Eb
      • E
      • F
      • F#
      • G
      • Ab
    • Adicionar à lista

    Afinação da cifra

    Afinador online

      0 comentários

      Ver todos os comentários

      Entre para o Cifra Club PRO

      Tenha acesso a benefícios exclusivos no App e no Site

      • Chega de anúncios

      • Badges exclusivas

      • Mais recursos no app do Afinador

      • Atendimento Prioritário

      • Aumente seu limite de lista

      • Ajude a produzir mais conteúdo

      Cifra Club Pro

      Aproveite o Cifra Club com benefícios exclusivos e sem anúncios
      Cifra Club Pro
      Aproveite o Cifra Club com benefícios exclusivos e sem anúncios
      OK