Cifra Club

Perto do Céu

Projota

Cifra: Principal (violão e guitarra)
Selo Cifra Club: esta cifra foi revisada para atender aos critérios oficiais da nossa Equipe de Qualidade.
tom: Ebm
[Intro] D#m7  G#  
 
   D#m7                   G#
E|----------------------------------------------------|
B|----------------------------------------------------|
G|-----6-------6---------------4--3-----3-------------|
D|---4-------4---------------4--------4---------------|
A|-6--------------------------------------------------|
E|-------7----------------4---------------------------|

   D#m7                   G#
E|----------------------------------------------------|
B|----------------------------------------------------|
G|-----6-------6---------------4--3-----3-------------|
D|---4-------4---------------4--------4---------------|
A|-6--------------------------------------------------|
E|-------7----------------4---------------------------|

[Primeira Parte]

                       D#m7                B7M
Lembra quando a gente ainda acreditava na vida?
                       G#m7
Cada vez que o Ayrton Senna ganhava a corrida
               D#m7                B7M
Eu olhava pro mundo como se fosse meu
                      G#m7
Isso não fazia que o mundo fosse menos seu
                  D#m7               B7M
Mas se ele fosse seu, você me emprestava
                    G#m7
E eu devolvia na semana que vem
                                  D#m7                      B7M
Meu pai chegava em casa com o Suflair que ele comprava no trem
                    G#m7              
São coisas que atormentam minha mente 
                              D#m7  
Nesses dias que a saudade vem

[Pré-Refrão]

B7M
 E o porquê eu não sei
     G#m7
Mas nesse céu azul ainda não te encontrei
D#m7  B7M                G#m7
  Eu vou observar as estrelas pra te ver brilhar
B7M
 E o porquê eu não sei
     G#m7
Mas nesse céu azul ainda não te encontrei
D#m7  B7M                G#m7
  Eu vou observar as estrelas

[Refrão]
 
                            D#m7  B7M     
E a gente ouvia o Charlie Brown    
       G#m7
Até o dia nascer
                       D#m7  B7M
O mundo era nosso quintal
         G#m7
Não dá pra esconder
                       D#m7                   B7M
E eu vou falar de uma vez pra esse mundo sem leis
                   G#m7
Que a minha lei é viver
                          D#m7  B7M
E quando toca o Charlie Brown
                   G#m7
Me faz lembrar de você

( D#m7  B7M  G#m7 )
( D#m7  B7M  G#m7 )

[Segunda Parte]

               D#m7             B7M
E quando tudo parecia tá errado 
                     G#m7
Eu ligava o som pra ver quem tava do outro lado
                          D#m7           B7M
E ouvia aquela voz de um louco marginalizado igual a mim
       G#m7
Que dizia pra eu lutar até o fim
                     D#m7          B7M
E eu sei que a vida pode parecer cruel
                   G#m7
Mas todos nascem pra fazer o seu papel 
                     D#m7        
E eu aprendi que os bons se vão primeiro 
         B7M                          G#m7
Porque quando estão na Terra eles já vivem bem mais perto do céu

Que saudade, mano

[Pré-Refrão]

B7M
 E o porquê eu não sei
     G#m7
Mas nesse céu azul ainda não te encontrei
D#m7  B7M                G#m7
  Eu vou observar as estrelas pra te ver brilhar
B7M
 E o porquê eu não sei
     G#m7
Mas nesse céu azul ainda não te encontrei
D#m7  B7M                G#m7
  Eu vou observar as estrelas

[Refrão]
 
                            D#m7  B7M     
E a gente ouvia o Charlie Brown    
       G#m7
Até o dia nascer
                       D#m7  B7M
O mundo era nosso quintal
         G#m7
Não dá pra esconder
                       D#m7                   B7M
E eu vou falar de uma vez pra esse mundo sem leis
                   G#m7
Que a minha lei é viver
                          D#m7  B7M
E quando toca o Charlie Brown
                   G#m7
Me faz lembrar de você

[Ponte]

         D#m7
Naquele tempo eu fui eu
                           C#
Mas eu não sei por quanto tempo eu fui eu
                     B                        Bb7
Em algum quilômetro desse túnel eu me despedacei
         D#m7
Naquele tempo eu fui eu
                           C#
Mas eu não sei por quanto tempo eu fui eu
                     B                        Bb7
Em algum quilômetro desse túnel eu me despedacei

[Refrão]
 
                            D#m7  B7M     
E a gente ouvia o Charlie Brown    
       G#m7
Até o dia nascer
                       D#m7  B7M
O mundo era nosso quintal
         G#m7
Não dá pra esconder
                       D#m7                   B7M
E eu vou falar de uma vez pra esse mundo sem leis
                   G#m7
Que a minha lei é viver
                          D#m7  B7M
E quando toca o Charlie Brown
                   G#m7
Me faz lembrar de você

[Final] D#m7  G#  
 
   D#m7                   G#
E|----------------------------------------------------|
B|----------------------------------------------------|
G|-----6-------6---------------4--3-----3-------------|
D|---4-------4---------------4--------4---------------|
A|-6--------------------------------------------------|
E|-------7----------------4---------------------------|

   D#m7                   G#
E|----------------------------------------------------|
B|----------------------------------------------------|
G|-----6-------6---------------4--3-----3-------------|
D|---4-------4---------------4--------4---------------|
A|-6--------------------------------------------------|
E|-------7----------------4---------------------------|
00:00 / 00:00
Outros vídeos desta música
Repetir
Outros vídeos desta música
2.666 exibições
    • ½ Tom
    • Am
    • Bbm
    • Bm
    • Cm
    • C#m
    • Dm
    • Ebm
    • Em
    • Fm
    • F#m
    • Gm
    • G#m
  • Adicionar à lista

Afinação da cifra

Afinador online

    0 comentários

    Ver todos os comentários

    Entre para o Cifra Club PRO

    Tenha acesso a benefícios exclusivos no App e no Site

    • Chega de anúncios

    • Mais recursos no app do Afinador

    • Atendimento Prioritário

    • Aumente seu limite de lista

    • Ajude a produzir mais conteúdo

    00:00 / 00:00

    Cifra Club Pro

    Aproveite o Cifra Club com benefícios exclusivos e sem anúncios
    Cifra Club Pro
    Aproveite o Cifra Club com benefícios exclusivos e sem anúncios
    OK