Cifra Club

Aprenda

Promete

Pull Down

Cifra: Principal (violão e guitarra)
tom: Db
Afinação E.. Diapasão Normal para Esta versão..
Intro com Overdrive.
E|------------------------
B|------------------------
G|------------------------      Intro 2X
D|--10~--6~---13~--8~----- 
A|--8~---4~---11~--6~-----
D|--6~---2~---9~---4~-----
 
Guitarra Base
E|---------------------------------------------------------------------------------------
B|---------------------------------------------------------------------------------------
G|-----------------------------------------------------------------x-x-x-6~--------------
D|-3-3-3-3-x-x-3-3-3-3-x-x-3-3-3-3-4-4-4-4-x-x-4-4-4-4-x-x-4-4-4-4-x-x-x-6~-x-x-x-8~--x-4
A|-3-3-3-3-x-x-3-3-3-3-x-x-3-3-3-3-4-4-4-4-x-x-4-4-4-4-x-x-4-4-4-4-x-x-x-4~-x-x-x-6~--x-4
E|-1-1-1-1-x-x-1-1-1-1-x-x-1-1-1-1-2-2-2-2-x-x-2-2-2-2-x-x-2-2-2-2----------x-x-x-4~--x-2

Guitarra Solo
E|---------------------------------------------------------------------------------------
B|---------------------------------------------------------------------------------------
G|----------------------------------------------------------------------5/6-5-5/6-5------
D|-3-3-3-3-x-x-3-3-3-3-x-x-3-3-3-3-4-4-4-4-x-x-4-4-4-4-x-x-4-4-4-4-----------------5-5~--  
A|-3-3-3-3-x-x-3-3-3-3-x-x-3-3-3-3-4-4-4-4-x-x-4-4-4-4-x-x-4-4-4-4-----------------------
D|-1-1-1-1-x-x-1-1-1-1-x-x-1-1-1-1-2-2-2-2-x-x-2-2-2-2-x-x-2-2-2-2-----------------------

Guitarra Base
E|---------------------------------------------------------------------------------------
B|---------------------------------------------------------------------------------------
G|-----------------------------------------------------------------x-x-x-6~--------------
D|-3-3-3-3-x-x-3-3-3-3-x-x-3-3-3-3-4-4-4-4-x-x-4-4-4-4-x-x-4-4-4-4-x-x-x-6~-------6~-----
A|-3-3-3-3-x-x-3-3-3-3-x-x-3-3-3-3-4-4-4-4-x-x-4-4-4-4-x-x-4-4-4-4-x-x-x-4~-------6~-----
E|-1-1-1-1-x-x-1-1-1-1-x-x-1-1-1-1-2-2-2-2-x-x-2-2-2-2-x-x-2-2-2-2----------------4~-----

Guitarra Solo
E|----------------------------------------------------------------------------------------
B|----------------------------------------------------------------------------------------
G|---------------------------------------------------------------------5/6-5-5/6-5---6/8-6~
D|-3-3-3-3-x-x-3-3-3-3-x-x-3-3-3-3-4-4-4-4-x-x-4-4-4-4-x-x-4-4-4-4-----------------5------  
A|-3-3-3-3-x-x-3-3-3-3-x-x-3-3-3-3-4-4-4-4-x-x-4-4-4-4-x-x-4-4-4-4------------------------
D|-1-1-1-1-x-x-1-1-1-1-x-x-1-1-1-1-2-2-2-2-x-x-2-2-2-2-x-x-2-2-2-2------------------------

( C# F# A# F# ) Só o Baixo
Promete que nos veremos logo                 
promete que isso não vai ficar assim         
não consigo suportar a falta do seu olhar              
                                              
Db5                                   
   Promete que vamos ficar de novo
Gb5                             Bb5
   promete que comigo será feliz
                                     Gb5             
que mesmo essa distância não vai roubar você de mim

F5                               Gb5
    Quanto tempo mais vou agüentar
                   Db5
ficar sem te abraçar , sinto a falta do calor
      Ab5                Gb5
que encontro no nosso amor

Db5                                 
 Promete que nos veremos logo                
Gb5                                Bb5    
 promete que isso não vai ficar assim                           
                         Gb5        
 não consigo suportar a falta do seu olhar                                            
Db5                                   
   Promete que vamos ficar de novo
Gb5                             Bb5
   promete que comigo será feliz
                                     Gb5             
que mesmo essa distância não vai roubar você de mim

F5                               Gb5
    Quanto tempo mais vou agüentar
                   Db5
ficar sem te abraçar , sinto a falta do calor
     
 Ab5                Gb5
que encontro no nosso amor

Bb5              Gb5
 Sem promessas, só o calor
Db5            Ab5
 quero aproveitar esse momento
A#5       F#5                              Refrão duas vezes
 com você, só com você
Db5           Ab5
  Viver esse sentimento  

Guitarra Base
E|--------------------------------------------------------------------------------
B|--------------------------------------------------------------------------------
G|--------------------------------------------------------------------6~----------
D|-3-3-3-3----------------3-3-3-3----------------4-4-4-4----4-4-4-4---6~--6~--x-4-
A|-3-3-3-3----------------3-3-3-3----------------4-4-4-4----4-4-4-4---4~--6~--x-4-
E|-1-1-1-1----------------1-1-1-1----------------2-2-2-2----2-2-2-2-------4~--x-2-
Guitarra Solo
E|--------------------------------------------------------------------------------
B|--------------------------------------------------------------------------------
G|---------------------------------------------------------------------6----------
D|-----------3-3-3-3-----------------4-4-4-4----------------4-4-4-4----6---6--x-4-
A|-----------3-3-3-3-----------------4-4-4-4----------------4-4-4-4----4---6--x-2-
E|-----------1-1-1-1-----------------2-2-2-2----------------2-2-2-2--------4--x-2-

As duas Guitas.. 2x..  Da primeira Vez Arrasta Palheta na Mizona em direção a Mão da guita duas 2 na parte Marcada.. logo a frente.. com símbolo  Quadradinho ae..
E|------------------------------------------------------------------------------------------------
B|------------------------------------------------------------------------------------------------
G|------------------------------------------------------------------------------------------------
D|-3-3-3-3--3-3-3-3---3-3-3-3-4-4-4-4---4-4-4-4----x-x-6-6-x-x-6-6-x-x-6-x-x-8-8-x-x-8-8-x-x-8~----
A|-3-3-3-3--3-3-3-3---3-3-3-3-4-4-4-4---4-4-4-4----x-x-4-4-x-x-4-4-x-x-4-x-x-6-6-x-x-6-6-x-x-6~----
E|-1-1-1-1--1-1-1-1---1-1-1-1-2-2-2-2---2-2-2-2--------------------------x-x-4-4-x-x-4-4-x-x-4~----
                                                          

Bb5              Gb5
 Sem promessas, só o calor
Db5            Ab5
 quero aproveitar esse momento
Bb5       Gb5                              
 com você, só com você
Db5           Ab5        
  viver esse sentimento
Bb5              Gb5
 Sem promessas, só o calor
Db5            Ab5
 quero aproveitar esse momento
Bb5       Gb5                              
 com você, só com você
Db5           Ab5        ( Bb5 Gb5 Db5 )
  viver esse sentimento
Composição de Jonas Y / Paula Gaid.
Colaboração e revisão:
108.607 exibições
    • ½ Tom
    • A
    • Bb
    • B
    • C
    • Db
    • D
    • Eb
    • E
    • F
    • F#
    • G
    • Ab
  • Adicionar à lista

    0 comentários

    Ver todos os comentários

    Conseguiu tocar?

    1 Tocaram 0 Ainda não

    Grave um vídeo tocando Promete e nos envie!

    00:00 / 00:00
    Outros vídeos desta música
    Repetir Qualidade Automático
    Outros vídeos desta música
    00:00 / 00:00
    Automático

    Cifra Club Pro

    Aproveite o Cifra Club com benefícios exclusivos e sem anúncios
    Cifra Club Pro
    Aproveite o Cifra Club com benefícios exclusivos e sem anúncios
    OK