Cifra Club

Fundamental

Puya

Cifra: Principal (violão e guitarra)
tom: A
INTRO / VERSE
E|-------------------------------------------------|
B|-------------------------------------------------|
G|-------------------------------------------------|
D|----------0--2-------0---------0-2--------0------|
A|-------2-----------2--------2-----------0--------|
E|---2------------0--------2------------0----------|

Acoustic guitar plays/picks chords: D and C (standard) or here like:
E|---7---5------|
B|---9---7------|
G|---9---7------|
D|---9---7------|
A|---7---5------|
E|--------------|

CHORUS
...... D ....... C ........... D ........ C .......... D#
E|-------------------------------------------------------------|
B|-------------------------------------------------------------|
G|-------------------------------------------------------------|
D|----(2)---2---(0)---0-0-----(2)---2----(0)-------0---3-------|
A|----(2)-------(0)-----------(2)--------(0)---2------(3)------|
E|-----2---------0-------------2----------0-----------(3)------|

Break & Solo rhythm
E|----------------------------|
B|----------------------------|
G|----------------------------|
D|---2-1-0---2-0-----0-2------|
A|---2-1-0--------2-----------|
E|---2-1-0--------------------|
Composição de Puya
    • ½ Tom
    • A
    • Bb
    • B
    • C
    • Db
    • D
    • Eb
    • E
    • F
    • F#
    • G
    • Ab
  • Adicionar à lista

    0 comentários

    Ver todos os comentários

    Conseguiu tocar?

    0 Tocaram 0 Ainda não

    Grave um vídeo tocando Fundamental e nos envie!

    00:00 / 00:00
    Outros vídeos desta música
    Repetir Qualidade Automático
    Outros vídeos desta música
    00:00 / 00:00
    Automático

    Cifra Club Pro

    Aproveite o Cifra Club com benefícios exclusivos e sem anúncios
    Cifra Club Pro
    Aproveite o Cifra Club com benefícios exclusivos e sem anúncios
    OK