Cifra Club

Keep It Simple

Puya

Cifra: Principal (violão e guitarra)
tom: Em
... Em ..... B7 .......... C .... B
E|------------------------------------|
B|--8--------10-----------------------|
G|-----9--------11----------9-----8---|
D|--------9--------13------10-----9---|
A|-------------------------10-----9---|
E|--------------------------8-----7---|

... Em ...... B ......... C . B*
E|--------------------------------| ......------
B|--8-------------------------7---| ..... ------
G|-----9------11--8-------9---8---..*| OR. --16--
D|--------9--------------10---9---| ..... --16--
A|-----------------------10---9---| ..... --14--
E|------------------------8---7---| ..... --14--

BDA K
E|---------|--------------|------------|----------|
B|---------|--------------|------------|----------|
G|---------|--------------|------------|-------2--|
D|--2------|--575---------|------------|--1-4-----|
A|----2----|-------7-5-7--|--2--1--0---|----------|
E|------0--|--------------|------------|----------|

E|---------|------------|----------|---------|------------|
B|---------|------------|----------|---------|--88-8/10---|
G|---------|------------|----------|---------|--77-7/| 9---
D|--2------|------------|--1-4-1---|--2------|------------|
A|----2----|--2--1-0----|----------|----2----|------------|
E|------0--|------------|----------|------0--|------------|

E|------------|------------|---------|------------|-----------|
B|------------|------------|---------|------------|-----------|
G|------------|--------2---|---------|------------|-----------|
D|------------|--1--4------|--2------|------------|-----------|
A|--2--1--0---|------------|----2----|--2--1--0---|--2--2-----|
E|------------|------------|------0--|------------|-----------|
Composição de Puya
    • ½ Tom
    • Am
    • Bbm
    • Bm
    • Cm
    • C#m
    • Dm
    • Ebm
    • Em
    • Fm
    • F#m
    • Gm
    • G#m
  • Adicionar à lista

    0 comentários

    Ver todos os comentários

    Conseguiu tocar?

    0 Tocaram 0 Ainda não

    Grave um vídeo tocando Keep It Simple e nos envie!

    00:00 / 00:00
    Outros vídeos desta música
    Repetir Qualidade Automático
    Outros vídeos desta música
    00:00 / 00:00
    Automático

    Cifra Club Pro

    Aproveite o Cifra Club com benefícios exclusivos e sem anúncios
    Cifra Club Pro
    Aproveite o Cifra Club com benefícios exclusivos e sem anúncios
    OK