Cifra Club

No Inventes

Puya

Cifra: Principal (violão e guitarra)
tom: E
INTRO / CHORUS
E|-------------------|
B|-------------------|
G|-------------------|
D|--2-3-2------------|
A|--2-3-2------------|
E|--2-3-2--7-5-7-5---|

VERSE
E|--------------|
B|--------------|
G|--------------|
D|---2-3-2------|
A|---2-3-2------|
E|---2-3-2------|

PD-C HORUS
E|-----------------|---------------|
B|-----------------|---------------|
G|-----------------|---------------|
D|---5--3--4-------|---5--3--xxx---|
A|---3--1--4-------|---3--1--xxx---|
E|---5--1--4-------|---5--1--xxx---|

BRIDGE
E|-----------------------------|
B|-----------------------------|
G|-----------------------------|
D|-----5/6-5/6----0--5/6-5/6---|
A|-----5/6-5/6----0--5/6-5/6---|
E|-----5/6-5/6----0--5/6-5/6---|

.....................1/1
E|-------------------------------------|
B|---10------10-----10^10--------------|
G|---10------10-----10^10--------------|
D|---10------10-----------...[| G  O]----
A|-------------------------------------|
E|------0-0-----0-0--------------------|
Composição de Puya
    • ½ Tom
    • A
    • Bb
    • B
    • C
    • Db
    • D
    • Eb
    • E
    • F
    • F#
    • G
    • Ab
  • Adicionar à lista

    0 comentários

    Ver todos os comentários

    Conseguiu tocar?

    0 Tocaram 0 Ainda não

    Grave um vídeo tocando No Inventes e nos envie!

    00:00 / 00:00
    Outros vídeos desta música
    Repetir Qualidade Automático
    Outros vídeos desta música
    00:00 / 00:00
    Automático

    Cifra Club Pro

    Aproveite o Cifra Club com benefícios exclusivos e sem anúncios
    Cifra Club Pro
    Aproveite o Cifra Club com benefícios exclusivos e sem anúncios
    OK