Cifra Club

Oasis

Puya

Cifra: Principal (violão e guitarra)
tom: F
E|-------------------------|
B|-------------------------|
G|-------------------------|
D|--0-00-3---0-00-3| ----
A|--0-00-3---0-00-3| ----
E|--0-00-3---0-00-3| ----

E|------------------|
B|------------------|
G|------------------|
D|--0-00-3----2^2---|
A|--0-00-3----2^2---|
E|--0-00-3----2^2---|

VERSE (wah)
E|--10-10-----------|
B|--10-10--12-10----|
G|--10-10--12-10----|
D|------------------|
A|------------------|
E|------------------|

FILLING
E|------------------------------|
B|------------------------------|
G|------------------------------|
D|--------3---------------------|
A|-----5----5---3-5-----5-3-5---|
E|--0----------------0----------|

CHORUS
E|--------------------------------------|
B|--------------------------------------|
G|--------------------------------------|
D|--3-5--55-3-5-3-----5-3-5--55-3-5-3---|
A|--3-5--55-3-5-3-----5-3-5--55-3-5-3---|
E|--3-5--55-3-5-3-----5-3-5--55-3-5-3---|

BDA K
E|---------------------------------------|
B|---------------------------------------|
G|---------------------------------------|
D|-----------------------8-6-10-8-6-10---|
A|-----------------------8-6-10-8-6-10---|
E|--6666--8-6...[| G  O]...8-6-10-8-6-10---

OUTRO
E|--------------------|
B|--------------------|
G|--------------------|
D|---1-3--6--r| epeat---
A|---1-3--6-----------|
E|---1-3--6-----------|

E|----------------------------|
B|----------------------------|
G|----------------------------|
D|---3-33--6---6| --5---
A|---3-33--6---6| --5---
E|---3-33--6---6| --5---

E|-------------------------|
B|-------------------------|
G|-------------------------|
D|--1-3-6---6| --5---
A|--1-3-6---6| --5---
E|--1-3-6---6| --5---

END
E|-------------------------|
B|-------------------------|
G|-------------------------|
D|---6| --5--4---|
A|---6| --5--4---|
E|---6| --5--4---|
Composição de Puya
1 exibições
    • ½ Tom
    • A
    • Bb
    • B
    • C
    • Db
    • D
    • Eb
    • E
    • F
    • F#
    • G
    • Ab
  • Adicionar à lista

    0 comentários

    Ver todos os comentários

    Conseguiu tocar?

    0 Tocaram 0 Ainda não

    Grave um vídeo tocando Oasis e nos envie!

    00:00 / 00:00
    Outros vídeos desta música
    Repetir Qualidade Automático
    Outros vídeos desta música
    00:00 / 00:00
    Automático

    Cifra Club Pro

    Aproveite o Cifra Club com benefícios exclusivos e sem anúncios
    Cifra Club Pro
    Aproveite o Cifra Club com benefícios exclusivos e sem anúncios
    OK