Cifra Club

People

Puya

Cifra: Principal (violão e guitarra)
tom: Ebm
0:00
E|-12-12-12-12-12-12-12------|
B|-13-13-13-13-13-13-13------| esto va al principio
G|-14-14-14-14-14-14-14------|
D|-14-14-14-14-14-14-14------|
A|---------------------------|
E|---------------------------|

0:07
E|-5/6-6-0-5/6----8-9-8-9-5/6-6-0-5/6------|
B|-5/6-6-0-5/6------------5/6-6-0-5/6------|
G|-7/8-8-0-7/8-X2---------8/8-8-0-7/8-X2---|
D|-7/8-8-0-7/8------------8/8-8-0-7/8------|
A|-5/6-6-0-5/6------------5/6-6-0-5/6------|
E|-5/6-6-0-5/6------------5/6-6-0-5/6------|

0:15
E|-5/6-6-0-5/6----8/9-| esto--------
B|-5/6-6-0-5/6----7/8-s| e----------
G|-5/6-6-0-5/6-x2-----r| epite------
D|-7/8-8-0-7/8--------3-----------|
A|-7/8-8-0-7/8--------v| eces-------
E|-5/6-6-0-5/6--------------------|

0:27
E|-5/6-6-0-5/6----|
B|-5/6-6-0-5/6----|
G|-5/6-6-0-5/6----| dejas sonando
D|-7/8-8-0-7/8----| la nota
A|-7/8-8-0-7/8----|
E|-5/6-6-0-5/6----|

0:33
E|-12-12-12-12-12-12-12-8--6----|
B|-13-13-13-13-13-13-13-8--6----s| e repite 2 veces
G|-14-14-14-14-14-14-14-10-8----|
D|-14-14-14-14-14-14-14-10-8----|
A|------------------------------|
E|------------------------------|

0:49
E|-4-6-5-7-x-x-x-8-----|
B|-4-6-5-7-x-x-x-8-----|
G|-4-6-5-7-x-x-x-8-----s| e repite 7 veces
D|-6-8-7-9-x-x-x-10----|
A|-6-8-7-9-x-x-x-10----|
E|-4-6-5-7-x-x-x-10----|

1:04
E|-4-6-5-----|
B|-4-6-5-----|
G|-4-6-5-----|
D|-6-8-7-----|
A|-6-8-7-----|
E|-4-6-5-----|

1:06
E|-5/6-6-0-5/6----8/9-| esto--------
B|-5/6-6-0-5/6----7/8-s| e----------
G|-5/6-6-0-5/6-x2-----r| epite------
D|-7/8-8-0-7/8--------4-----------|
A|-7/8-8-0-7/8--------v| eces-------
E|-5/6-6-0-5/6--------------------|

1:23
E|-12-12-12-12-12-12-12-8--6----|
B|-13-13-13-13-13-13-13-8--6----s| e repite 2 veces
G|-14-14-14-14-14-14-14-10-8----|
D|-14-14-14-14-14-14-14-10-8----|
A|------------------------------|
E|------------------------------|

1:39
E|-4-6-5-7-x-x-x-8-----|
B|-4-6-5-7-x-x-x-8-----|
G|-4-6-5-7-x-x-x-8-----s| e repite 7 veces
D|-6-8-7-9-x-x-x-10----|
A|-6-8-7-9-x-x-x-10----|
E|-4-6-5-7-x-x-x-10----|

1:56
E|-5--4--3--2----7-5-5---|
B|-5--4--3--2--------5---|
G|-7--6--5--4-x2-----7---|
D|-7--6--5--4--------7---|
A|-5--4--3--2--------5---|
E|-5--4--3--2--------5---|

2:12
E|--------------------------|
B|--------------------------|
G|-5^-5^-5^-5^-5^-5^-5^-5^--| no se cuantas
D|--------------------------v| eces es esto
A|--------------------------|
E|--------------------------|

2:29
E|-5/6-6-0-5/6----8/9-| esto--------
B|-5/6-6-0-5/6----7/8-s| e----------
G|-5/6-6-0-5/6-x2-----r| epite------
D|-7/8-8-0-7/8--------4-----------|
A|-7/8-8-0-7/8--------v| eces-------
E|-5/6-6-0-5/6--------------------|

2:45
E|-12-12-12-12-12-12-12------|
B|-13-13-13-13-13-13-13------| esto va como
G|-14-14-14-14-14-14-14------| ke con flanger
D|-14-14-14-14-14-14-14------| no se con ke lo haga
A|---------------------------|
E|---------------------------|

2:50
E|-4-6-5-7-x-x-x-8-----|
B|-4-6-5-7-x-x-x-8-----|
G|-4-6-5-7-x-x-x-8-----s| e repite 6 veces
D|-6-8-7-9-x-x-x-10----|
A|-6-8-7-9-x-x-x-10----|
E|-4-6-5-7-x-x-x-10----|

3:04
E|-4-6-5-----|
B|-4-6-5-----|
G|-4-6-5-----|
D|-6-8-7-----|
A|-6-8-7-----|
E|-4-6-5-----|

3:06
E|-5/6-6-0-5/6----9-10-9-10-----|
B|-5/6-6-0-5/6------------------|
G|-5/6-6-0-5/6-x2---------------|
D|-7/8-8-0-7/8------------------|
A|-7/8-8-0-7/8------------------|
E|-5/6-6-0-5/6------------------|

3:10
E|-5/6-6-0-5/6----9^------------|
B|-5/6-6-0-5/6------------------|
G|-5/6-6-0-5/6-x2---------------|
D|-7/8-8-0-7/8------------------|
A|-7/8-8-0-7/8------------------|
E|-5/6-6-0-5/6------------------|

3:14
E|-5/6-6-0-5/6--9^--------------|
B|-5/6-6-0-5/6------------------| se repite 3
G|-5/6-6-0-5/6------------------| veces y la ultima
D|-7/8-8-0-7/8------------------s| in el pi
A|-7/8-8-0-7/8------------------|
E|-5/6-6-0-5/6------------------|

3:25
E|-4-6-0-4-5-7-8-----|
B|-4-6-0-4-5-7-8-----| el final va
G|-4-6-0-4-5-7-8-----| mas o menos asi
D|-6-8-0-6-7-9-10----|
A|-6-8-0-6-7-9-10----|
E|-4-6-0-4-5-7-8-----|
Compositor não encontrado.
    • ½ Tom
    • Am
    • Bbm
    • Bm
    • Cm
    • C#m
    • Dm
    • Ebm
    • Em
    • Fm
    • F#m
    • Gm
    • G#m
  • Adicionar à lista

    0 comentários

    Ver todos os comentários

    Conseguiu tocar?

    0 Tocaram 0 Ainda não

    Grave um vídeo tocando People e nos envie!

    00:00 / 00:00
    Outros vídeos desta música
    Repetir Qualidade Automático
    Outros vídeos desta música
    00:00 / 00:00
    Automático

    Cifra Club Pro

    Aproveite o Cifra Club com benefícios exclusivos e sem anúncios
    Cifra Club Pro
    Aproveite o Cifra Club com benefícios exclusivos e sem anúncios
    OK