Cifra Club

Ride

Puya

Cifra: Principal (violão e guitarra)
tom: D
E|------------------------------------------------| I
B|------------------------------------------------| I
G|------------------------------------------------| I
D|------------------------------------------------| I X7
A|----4-----------4-----------4-------------------| I
E|-5-----5--6--5-----4--6--5----5-----------------| I

E|------------------------------------------------| I
B|------------------------------------------------| I
G|------------------------------------------------| I
D|----------------1-------------------------------| I
A|----4-----------1-------------------------------| I
E|-5-----4--6--5--1-------------------------------| I

Aqui empieza la canción:*

D5
Esto es lo que hace la 3ra Guitarra:
E|------------------------------------------------|
B|------------------------------------------------|
G|-0--0---0--0--0---0--0--0---0--0---0------------|
D|------------------------------------------------| (Riff A1)
A|------------------------------------------------|
E|------------------------------------------------|

Esto lo hace la primera Guitarra:
E|------------------------------------------------| I
B|------------------------------------------------| I
G|------------------------------------------------| I
D|-5--3-------------------------------------------| I(Riff A)
A|-------3--1---3---------------------------------| I
E|------------------------------------------------| I

La segunda Guitarra Hace lo siguiente:
E|------------------------------------------------| I
B|------------------------------------------------| I
G|------------------------------------------------| I (Riff A2)
D|------------------------------------------------| I
A|------------------------------------------------| I
E|-5--4--6--5-----4--6--5---5---------------------| I

E|------------------------------------------------| I
B|------------------------------------------------| I
G|------------------------------------------------| I
D|------------------5---3-------------------------| I
A|------------------------3--1------3-------------| I
E|-5-----4---6--5---------------------------------| I


Ahora la guitarra (1) y la (3) hacen el Riff A y A1
Y la segunda guitarra repite el riff A2 3 veces mas.

Luego va esto :
(Gtr 1)
E|-10--X--X--10--10---X--X--10--10----10----------| I
B|-10--X--X--10--10---X--X--10--10----10----------| I
G|-12--X--X--12--12---X--X--12--12----12----------| I
D|------------------------------------------------| I
A|------------------------------------------------| I
E|------------------------------------------------| I

E|------------------------------------------------| I
B|------------------------------------------------| I
G|------------------------------------------------| I
D|--5---3-----------------------------------------| I
A|---------3--1----3------------------------------| I
E|------------------------------------------------| I

E|-10--X--X--10--10---X--X--10--10----10----------| I
B|-10--X--X--10--10---X--X--10--10----10----------| I
G|-12--X--X--12--12---X--X--12--12----12----------| I
D|------------------------------------------------| I
A|------------------------------------------------| I
E|------------------------------------------------| I

E|------------------------------------------------| I
B|------------------------------------------------| I
G|------------------------------------------------| I
D|--5---3-----------------------------------------| I
A|---------3--1----3------------------------------| I
E|------------------------------------------------| I

Pre Coro
D5
Gtr1
E|-10---10/11| ---10--10---I--10---10/11-----------------I
B|--X----X----------X---X---| I---X----X-----------------------I
G|--7----7/8| ------7---7---I---7----7/8--------3----------I
D|--------------------------| I------------------5-----3--1--3-I
A|--------------------------| I--------------------------------I
E|--------------------------| I--------------------------------I

Gtr2
E|------------------------------------------------------| I
B|------------------------------------------------------| I
G|------------------------------------------------------| I
D|----5--5----------------------6--6------3-------------| I
A|--------------------5----------------------3--1--3----| I
E|-5---------5--5--5------5--6---------5----------------| I
Compositor não encontrado.
    • ½ Tom
    • A
    • Bb
    • B
    • C
    • Db
    • D
    • Eb
    • E
    • F
    • F#
    • G
    • Ab
  • Adicionar à lista

    0 comentários

    Ver todos os comentários

    Conseguiu tocar?

    0 Tocaram 0 Ainda não

    Grave um vídeo tocando Ride e nos envie!

    00:00 / 00:00
    Outros vídeos desta música
    Repetir Qualidade Automático
    Outros vídeos desta música
    00:00 / 00:00
    Automático

    Cifra Club Pro

    Aproveite o Cifra Club com benefícios exclusivos e sem anúncios
    Cifra Club Pro
    Aproveite o Cifra Club com benefícios exclusivos e sem anúncios
    OK