Cifra Club

Sal pa' fuera

Puya

Cifra: Principal (violão e guitarra)
tom: Dm
INTRO
E|-----------------------------------|
B|-----------------------------------|
G|-----------------------------------|
D|--3-6-10----3-6-10--0--1--3-6-10---|
A|--3-6-10----3-6-10--0--1--3-6-10---|
E|--3-6-10----3-6-10--0--1--3-6-10---|

E|--------------------------|
B|--------------------------|
G|--------------------------|
D|--3-6-10--0--1--3-6-10---|
A|--3-6-10--0--1--3-6-10---|
E|--3-6-10--0--1--3-6-10---|

E|-----------------------------------------|
B|-----------------------------------------|
G|-----------------------------------------|
D|--3-6-10--0--1--3-6-10---3-6-10--0---1--|
A|--3-6-10--0--1--3-6-10---3-6-10--0---1--|
E|--3-6-10--0--1--3-6-10---3-6-10--0---1--|

E|--------------------------|
B|--------------------------|
G|--------------------------|
D|--00----00----00----00----|
A|--00----00----00----00----|
E|--00----00----00----00----|

CHORUS
E|-------------------------------------|
B|-------------------------------------|
G|-------------------------------------|
D|--(00)---------3----(00)---------5---|
A|--(00)--0-3-5-------(00)--0-3-5------|
E|---00----------------00--------------|

VERSE / CHORUS
E|-------------------------------------|
B|-------------10-----------------12---|
G|-------------10-----------------12---|
D|---00--0-0---10-------00--0-0---12---|
A|---00--0-0------------00--0-0--------|
E|---00--0-0------------00--0-0--------|

BRIDGE
E|----------------------------------------------------------|
B|----------------------------------------------------------|
G|--10-10-10------------------------------------------------|
D|--10-10-10----6-6-6----9-9-9----9-9-9----8-8-8----8-8-8---|
A|---8--8--8----6-6-6----9-9-9----9-9-9----8-8-8----8-8-8---|
E|--------------6-6-6----9-9-9----9-9-9----8-8-8----8-8-8---|

'despierta conciencia'
E|-----------------|
B|-----------------|
G|-----------------|
D|---8-9-6-8-9-8---|
A|---8-9-6-8-9-8---|
E|---8-9-6-8-9-8---|

'despierta...'
E|-------------------------------------|
B|-------------------------------------|
G|-------------------------------------|
D|-------------------------------------|
A|--1111-4| -1/3/4-1/3/4----5----------
E|--1111-4| -1/3/4-1/3/4-------7--6----

E|---------------------------------|
B|---------------------------------|
G|---------------------------------|
D|---------------------------------|
A|--5---------4---------0----------|
E|-----7-6-------6-5------5-3-0----|

after solo
E|---------------------------------|
B|---------------------------------|
G|---------------------------------|
D|--3| ---3/5---3---3/5---5/6----
A|--3| ---3/5---3---3/5---5/6----
E|--3| ---3/5---3---3/5---5/6----
Composição de ?
1 exibições
    • ½ Tom
    • Am
    • Bbm
    • Bm
    • Cm
    • C#m
    • Dm
    • Ebm
    • Em
    • Fm
    • F#m
    • Gm
    • G#m
  • Adicionar à lista

    0 comentários

    Ver todos os comentários

    Conseguiu tocar?

    0 Tocaram 0 Ainda não

    Grave um vídeo tocando Sal pa' fuera e nos envie!

    00:00 / 00:00
    Outros vídeos desta música
    Repetir Qualidade Automático
    Outros vídeos desta música
    00:00 / 00:00
    Automático

    Cifra Club Pro

    Aproveite o Cifra Club com benefícios exclusivos e sem anúncios
    Cifra Club Pro
    Aproveite o Cifra Club com benefícios exclusivos e sem anúncios
    OK