Cifra Club

Aprenda

Bohemian Rhapsody

Queen

Cifra: Aula-completa (violão e guitarra)
tom: E
[Intro]

Parte 1 de 7
   F#m7         B7
E|------------------------------------------|
B|-5-5-5-5---5--4-4-5-4---4-----------------|
G|-2-2-2-2---2--2-2-2-2---2-----------------|
D|-2-2-2-2---2--4-4-4-4---4-----------------|
A|--------------2-------2-------------------|
E|-2-------2--------------------------------|

Parte 2 de 7
   E7           A
E|-4-4-4-5---4------------------------------|
B|-3-3-3-3---3--2-2-3-2---2-----------------|
G|-4-4-4-4---4--2-2-2-2---2-----------------|
D|--------------2-2-4-2---2-----------------|
A|--------------0-------0-------------------|
E|-0-------0--------------------------------|

Parte 3 de 7
   F#m              A7
E|---------2----------------3---------------|
B|-2-----2---2------2-----2---2-------------|
G|-2---2-------2----2---2-------2-----------|
D|-4-4-----------4--2-2-----------2---------|
A|------------------0-----------------------|
E|-2----------------------------------------|

Parte 4 de 7
   D        (Frase 1)
E|-------5-----10-----10--------------------|
B|-7---7----12-----10-----------------------|
G|-7-7------12-----11-----------------------|
D|-0----------------------------------------|
A|------------------------------------------|
E|------------------------------------------|

Parte 5 de 7
   Bm           E7
E|------------------------------------------|
B|-7-7-7-7---7--9-9-10-9---9----------------|
G|-7-7-7-7---7--7-7-7--7---7----------------|
D|-9-9-9-9---9--9-9-9--9---9----------------|
A|------------------------------------------|
E|-7-------7----0-------0-------------------|

[Parte 6 De 7]
  (Frase 2)
E|-6--5--4--5--6--5--4--5-------------------|
B|-6--5--4--5--6--5--4--5-------------------|
G|-7--6--5--6--7--6--5--6-------------------|
D|------------------------------------------|
A|-0-----------0----------------------------|
E|------------------------------------------|

Parte 7 de 7
   D       A/C#          E7/B            E7
E|-2---2-------------------4---4--------4-10|
B|-3---3---2---2---4---4---3---3------3---9-|
G|-2-2---2-2---2---2---2---4-4------4-----7-|
D|-0-------2-2---2-4-4---4--------2-------9-|
A|---------4-------3-------2----2---------7-|
E|------------------------------------------|
                                          ↓
F#m7
Is this the real life?
B7
Is this just fantasy?
 E7
Caught in a landslide
      A
No escape from reality
F#m
Open your eyes
     A7                   D (Frase 1)
Look up to the skies and see
Bm
I'm just a poor boy
E7
I need no sympathy
            (Frase 2)
Because I'm easy come, easy go
 
Little high, little low
D           A/C#
Anyway the wind blows
              E7/B       E7
Doesn't really matter to me

[Primeira Parte]

Parte 1 de 9
   A
E|---------2---0------------2---0-----------|
B|-2-----2----------2-----2-----------------|
G|-2---2------------2---2-------------------|
D|-2-2-------2---2--2-2-------2---2---------|
A|-0----------------0-----------------------|
E|------------------------------------------|

Parte 2 de 9
   A                F#m
E|---------2---0------------4---2-----------|
B|-2-----2----------2-----2-----------------|
G|-2---2------------2---2-------------------|
D|-2-2-------2---2--4-4-------4---4---------|
A|-0----------------------------------------|
E|------------------2-----------------------|

Parte 3 de 9
   Bm                        E7
E|---------9---7----------------------------|
B|-7-----7----------7-----7--9-----9--------|
G|-7---7------------7---7----7---7----------|
D|-9-9-------9---9--9-9------9-9------------|
A|------------------------------------------|
E|-7----------------7--------0--------------|

Parte 4 de 9
   A                F#m
E|---------2---0------------4---2-----------|
B|-2-----2----------2-----2-----------------|
G|-2---2------------2---2-------------------|
D|-2-2-------2---2--4-4-------4---4---------|
A|-0----------------------------------------|
E|------------------2-----------------------|

Parte 5 de 9
   Bm      (Frase 3)
E|------------------------------------------|
B|-3-----3--3----3----3-----3--3----3-------|
G|-4---4----4----4----4---4----4----4-------|
D|-4-4--------4----4----4--------4----4-----|
A|-2--------1----0--------------------------|
E|--------------------4--------3----2-------|

Parte 6 de 9
   D        A/C#     Bm
E|-2---2---2-----------------9---7----------|
B|-3---3---3----2----7-----7----------------|
G|-2-2---2---2--2----7---7------------------|
D|-0------------2-2--9-9-------9---9--------|
A|--------------4---------------------------|
E|-------------------7----------------------|

Parte 7 de 9
   Em (Frase 4)     A7
E|-0---0--0-0---0---0--0-0-0--0-0-0--0-0-0-0-|
B|-0---0--0-0---0---2--2-2-2--2-2-2--2-2-2-2-|
G|---0--------0---0-0--0-0-0--0-0-0--0-0-0-0-|
D|--------1-0-------2--2-2-2--2-2-2--2-2-2-2-|
A|--------------4---0--0-0-0--0-0-0--0-0-0-0-|
E|-0-----------------------------------------|
                    ↓  ↓ ↑ ↓  ↓ ↑ ↓  ↓ ↑ ↓ ↓ 

Parte 8 de 9
   D        A/C#     Bm       Gm
E|-2---2------------------------------------|
B|-3---3----2---2----3---3-----3------------|
G|-2-2---2--2---2----4---4-----3------------|
D|-0--------2-2---2--4-4---4---5------------|
A|----------4--------2----------------------|
E|-----------------------------3------------|

Parte 9 de 9
   D        (Frase 5)
E|-------5-----10-----10-----10----10-------|
B|-7---7----12-----10-----9------9----------|
G|-7-7------12-----11-----10-----8----------|
D|-0----------------------------------------|
A|------------------------------------------|
E|------------------------------------------|

    A              F#m
To me… mama, just killed a man
       Bm
Put a gun against his head
                             E7
Pulled my trigger, now he's dead
 A              F#m
Mama, life had just begun
     Bm (Frase 3)
But now I've gone 
                  
And thrown it all away
 D    A/C#  Bm
Mama! Ooooooooh!
        Em (Frase 4)
Didn't mean to make you cry
   A7
If I'm not back again 
             D
This time tomorrow
      A/C#      Bm
Carry on, carry on
       Gm             D (Frase 5)
As if nothing really matters

[Segunda Parte]

Parte 1 de 7
   A
E|---------2---0------------2---0-----------|
B|-2-----2----------2-----2-----------------|
G|-2---2------------2---2-------------------|
D|-2-2-------2---2--2-2-------2---2---------|
A|-0----------------0-----------------------|
E|------------------------------------------|

Parte 2 de 7
   A                F#m
E|---------2---0------------4---2-----------|
B|-2-----2----------2-----2-----------------|
G|-2---2------------2---2-------------------|
D|-2-2-------2---2--4-4-------4---4---------|
A|-0----------------------------------------|
E|------------------2-----------------------|

Parte 3 de 7
   Bm                        E7
E|---------9---7----------------------------|
B|-7-----7----------7-----7--9-----9--------|
G|-7---7------------7---7----7---7----------|
D|-9-9-------9---9--9-9------9-9------------|
A|------------------------------------------|
E|-7----------------7--------0--------------|

Parte 4 de 7
   A                F#m
E|---------2---0------------4---2-----------|
B|-2-----2----------2-----2-----------------|
G|-2---2------------2---2-------------------|
D|-2-2-------2---2--4-4-------4---4---------|
A|-0----------------------------------------|
E|------------------2-----------------------|

Parte 5 de 7
   Bm      (Frase 3)
E|------------------------------------------|
B|-3-----3--3----3----3-----3--3----3-------|
G|-4---4----4----4----4---4----4----4-------|
D|-4-4--------4----4----4--------4----4-----|
A|-2--------1----0--------------------------|
E|--------------------4--------3----2-------|

Parte 6 de 7
   D        A/C#     Bm
E|-2---2---2-----------------9---7----------|
B|-3---3---3----2----7-----7----------------|
G|-2-2---2---2--2----7---7------------------|
D|-0------------2-2--9-9-------9---9--------|
A|--------------4---------------------------|
E|-------------------7----------------------|

Parte 7 de 7
   Em   (Frase 4)   A7
E|-0---0--0-0---0---0--0-0-0--0-0-0--0-0-0-0-|
B|-0---0--0-0---0---2--2-2-2--2-2-2--2-2-2-2-|
G|---0--------0---0-0--0-0-0--0-0-0--0-0-0-0-|
D|--------1-0-------2--2-2-2--2-2-2--2-2-2-2-|
A|--------------4---0--0-0-0--0-0-0--0-0-0-0-|
E|-0-----------------------------------------|
                    ↓  ↓ ↑ ↓  ↓ ↑ ↓  ↓ ↑ ↓ ↓ 

A               F#m
  Too late, my time has come
        Bm
Sends shivers down my spine
                       E7
Body's aching all the time
 A                      F#m
Goodbye everybody I've got to go
       Bm (Frase 3)
Gotta leave you all behind
       
And face the truth
 D    A/C#  Bm   Em  (Frase 4)
Mama! Oooooooh!  I don't wanna die
   A7
I sometimes wish 
                       D
I'd never been born at all

[Solo] A/C#  Bm  Em (Frase 4)  A7
       D  A/C#  Bm  Em (Frase 4)  C (Frase 6)

Parte 1 de 4
   D        A/C#     Bm       
E|-2---2---------------------9---7----------|
B|-3---3----2---2----7-----7----------------|
G|-2-2---2--2---2----7---7------------------|
D|-0--------2-2---2--9-9-------9---9--------|
A|----------4-------------------------------|
E|-------------------7----------------------|

Parte 2 de 4
   Em   (Frase 4)   A7
E|-0---0--0-0---0---0--0-0-0--0-0-0--0-0-0-0-|
B|-0---0--0-0---0---2--2-2-2--2-2-2--2-2-2-2-|
G|---0--------0---0-0--0-0-0--0-0-0--0-0-0-0-|
D|--------1-0-------2--2-2-2--2-2-2--2-2-2-2-|
A|--------------4---0--0-0-0--0-0-0--0-0-0-0-|
E|-0-----------------------------------------|
                    ↓  ↓ ↑ ↓  ↓ ↑ ↓  ↓ ↑ ↓ ↓ 

Parte 3 de 4
   D        A/C#     Bm       
E|-2---2---------------------9---7----------|
B|-3---3----2---2----7-----7----------------|
G|-2-2---2--2---2----7---7------------------|
D|-0--------2-2---2--9-9-------9---9--------|
A|----------4-------------------------------|
E|-------------------7----------------------|

Parte 4 de 4
   Em    (Frase 4)   C    (Frase 6)
E|-0---0--0-0---0----------------------------|
B|-0---0--0-0---0----1---1-1--1--1---1-------|
G|---0--------0---0--0---0-0--0--0---0-------|
D|--------1-0----------2-----------2---2-----|
A|--------------4----3-----3--2--1---0-------|
E|-0-----------------------------------------|

[Terceira Parte]

Parte 1 de 4
   G#                (Frase 7)
E|-4----------------------------------------|
B|-4-4-4-4-4-4-4-4--6--4-4-3--4-4-6--4-4-3--|
G|-5-5-5-5-5-5-5-5--6--5-5-4--5-5-6--5-5-4--|
D|-6-6-6-6-6-6-6-6--6--6-6-6--6-6-6--6-6-6--|
A|-6----------------------------------------|
E|-4----------------4--4-4-4--4-4-4--4-4-4--|
   ↓

Parte 2 de 4
   G#   (Frase 7)
E|------------------------------------------|
B|-4-4-6--4-4-6--4-4-3-3--4--6--4-----------|
G|-5-5-6--5-5-6--5-5-4-4--5--6--5-----------|
D|-6-6-6--6-6-6--6-6-6-6--6--6--6-----------|
A|------------------------------------------|
E|-4-4-4--4-4-4--4-4-4-4--4--4--4-----------|

Parte 3 de 4
   C        G/B    F#       Eb7     G#  
E|-0-0-0-0--3--3---2-2-2-2--3--3----6-------|
B|-1-1-1-1--3--3---2-2-2-2--2--2----6-------|
G|-0-0-0-0--0--0---3-3-3-3--3--3----5-------|
D|-2-2-2-2--0--0---4-4-4-4--1--1----6-------|
A|-3-3-3-3--2--2---4-4-4-4----------6-------|
E|-----------------2-2-2-2----------4-------|
   ↓ ↑ ↓ ↑  ↓  ↓   ↓ ↑ ↓ ↑  ↓  ↓    ↓

Parte 4 de 4
   (Frase 8)
E|------------------------------------------|
B|-4--4--5--4--2--0-------------------------|
G|-------------------3----------------------|
D|-6--6--7--6--4--0--1----------------------|
A|-------------------1----------------------|
E|-4--4--5--4--2--0-------------------------|

G# (Frase 7)
   I see a little silhouetto of a man
G# (Frase 7)
Scaramouche! Scaramouche!

Will you do the fandango?
  C              G/B
Thunderbolt and lightning
 F#          Eb7        G#
Very, very frightening me!

Galileo! Galileo! Galileo! Galileo!
(Frase 8)
Galileo, Figaro! Magnifico!

[Quarta Parte]

Parte 1 de 3
   (Frase 2)        D  (Frase 9) 
E|-6-5-4-5-6-5-4-5--------------------------|
B|-6-5-4-5-6-5-4-5--3-3-3-3--3--3-3-3-3-3-3-|
G|-7-6-5-6-7-6-5-6--4-2-2-1--2--4-4-2-1-1-2-|
D|------------------0-0-0-0--0--0-0-0-0-0-0-|
A|-0----------------------------------------|
E|------------------------------------------|
                     ↓ ↓ ↑ ↓  ↓  ↓ ↑ ↓ ↓ ↑ ↓

Parte 2 de 3
   G       D/F#   E (Frase 10) A
E|------------------------------------------|
B|-0--0-2--3--3---0------------2------------|
G|-0-------2--2---1------------2------------|
D|-0-------0--0---2--0---------2------------|
A|----------------------4--2---0------------|
E|-3-------2------0-------------------------|

Parte 3 de 3
           (Frase 5)
E|--5---5------10-----10-----10----10-------|
B|----------12-----10-----9------9----------|
G|----------12-----11-----10-----8----------|
D|------------------------------------------|
A|------------------------------------------|
E|------------------------------------------|

(Frase 2)
I'm just a poor boy 
 
And no__body loves me
 D (Frase 9)
He's just a poor boy 

From a poor family
  G            D/F#
Spare him his life
           E(Frase 10) A (Frase 5)
From this monstrosity

[Quinta Parte]

Parte 1 de 7
   (Frase 2)      A  D  A  D  A (Frase 11)
E|-6-5-4-5-6-5-4-----2-----2----------------|
B|-6-5-4-5-6-5-4--2--3--2--3--2-2-3-5-3-2---|
G|-7-6-5-6-7-6-5--2--2--2--2--2-2-2-2-2-2---|
D|----------------2--0--2--0--2-2-2-2-2-2---|
A|-0--------------0-----0-----0-0-0-0-0-0---|
E|------------------------------------------|
                  ↓  ↓  ↓  ↓  ↓ ↑  ↓ ↑ ↓ ↑

Parte 2 de 7
   A D A  A (Frase 11)   A D A  (Frase 11)    
E|---2---------------------2----------------|
B|-2-3-2--2-2-3-5-3-2----2-3-2--2-2-3-5-3-2-|
G|-2-2-2--2-2-2-2-2-2----2-2-2--2-2-2-2-2-2-|
D|-2-0-2--2-2-2-2-2-2----2-0-2--2-2-2-2-2-2-|
A|-0---0--0-0-0-0-0-0----0---0--0-0-0-0-0-0-|
E|------------------------------------------|
   ↓ ↓ ↓  ↑ ↓ ↑ ↓ ↑ ↓    ↓ ↓ ↓  ↑ ↓ ↑ ↓ ↑ ↓

Parte 3 de 7
   A (Frase 11)    A  (Frase 11)
E|------------------------------------------|
B|---2-3-5-3-2-------2-3-5-3-2--------------|
G|---2-2-2-2-2-------2-2-2-2-2--------------|
D|---2-2-2-2-2-------2-2-2-2-2--------------|
A|---0-0-0-0-0-------0-0-0-0-0--------------|
E|------------------------------------------|
     ↓ ↑ ↓ ↑ ↓       ↓ ↑ ↓ ↑ ↓

Parte 4 de 7
   Bb5 G#5 C#5 C5  F5  A5  D5
E|------------------------------------------|
B|------------------------------------------|
G|---------6---5---10------7----------------|
D|-8---6---6---5---10--7---7----------------|
A|-8---6---4---3---8---7---5----------------|
E|-6---4---------------5--------------------|
   ↓   ↓   ↓   ↓   ↓   ↓   ↓ 

Parte 5 de 7
   D    (Frase 12)   A7   D2    G
E|------------------------0--0---------------|
B|-3--3--------------2-2--3--3--0--0---------|
G|-2--2--------------0-0--2--2--0--0---------|
D|-0--0--2--0--------2-2--0-----0--0---------|
A|-------------4--2--0-----------------------|
E|------------------------------3------------|
   ↓  ↑              ↓

[Parte 6 De 7]
   C#7(Frase 13)F#m  A7 
E|------------------------------------------|
B|-2------------2-2--2--2-2-2-2--2--2-2-2-2-|
G|-4------------2-2--0--0-0-0-0--0--0-0-0-0-|
D|-3------------4-4--2--2-2-2-2--2--2-2-2-2-|
A|-4--2--0-----------0--0-0-0-0--0--0-0-0-0-|
E|----------4---2---------------------------|
                     ↓  ↑ ↓ ↑ ↓  ↓  ↑ ↓ ↑ ↓

Parte 7 de 7
   A7
E|------------------------------------------|
B|-2--2-2-2-2--2--2-2-2-2-------------------|
G|-0--0-0-0-0--0--0-0-0-0-------------------|
D|-2--2-2-2-2--2--2-2-2-2-------------------|
A|-0--0-0-0-0--0--0-0-0-0-------------------|
E|------------------------------------------|
   ↓  ↑ ↓ ↑ ↓  ↓  ↑ ↓ ↑ ↓ 

(Frase 2) 
Easy come, easy go
 
Will you let me go?
 A  D  A
Bismillah!
 D   A (Frase 11)
No, we will not let you go!
A  D  A 
Bismillah!
(Frase 11)
We will not let you go!
A  D  A 
Bismillah!
A (Frase 11)
We will not let you go! let me go!
A (Frase 11)
We will not let you go! let me go!
A (Frase 11)
Will not let you go! Let you go!
 Bb5  G#5  C#5  C5  F5  A5  D5   
No,  no,  no,  no, no, no, no!

Oh, mamma mia, mamma mia!
 D (Frase 12)      A7
Mamma mia, let me go!
  D2   G         C#7 (Frase 13)
Beelzebub has a devil 
      F#m      A7
Put aside for me! For me! For me!

[Sexta Parte]

Parte 1 de 13
   D2  (Frase 14)
E|-0---0---0---0----0---0---0-----0----------|
B|-3---3---3---3----3---3---3-----3----------|
G|-2---2---0---0----2---2---0-----0----------|
D|-0-------------0--0------------------------|
A|---------0-2-4------------0-2-0------------|
E|---2---3------------2---3------------------|

Parte 2 de 13
   D2               E  (Frase 15)
E|-0---0---0---0----0---0---0-----0----------|
B|-3---3---3---3----0---0---0-----0----------|
G|-2---2---0---0----1---1---1-----1----------|
D|-0-------------0---------------------------|
A|---------0-2-4----------0-2-4-2------------|
E|---2---3----------0-4----------------------|

Parte 3 de 13
   A                          D2
E|----------------------------0---0---------|
B|-2---2----2---2----2---2----3---3---------|
G|-2---2----2---2----2---2----2---2---------|
D|-2---2----2---2----2---2----0-0---0-------|
A|-0-0---0--0-0---0--0-0---0----------------|
E|------------------------------------------|

Parte 4 de 13
   A       (Frase 16)       C5
E|------------------------------------------|
B|-2---2------------------------------------|
G|-2---2-------------------5----------------|
D|-2---2---5-7-5-----------5----------------|
A|-0-0---0-------7-6-5-3---3----------------|
E|------------------------------------------|

Parte 5 de 13
   A                          D7(2/4)
E|----------------------------0---0---------|
B|-2---2----2---2----2---2----1---1---------|
G|-2---2----2---2----2---2----0---0---------|
D|-2---2----2---2----2---2----0-0---0-------|
A|-0-0---0--0-0---0--0-0---0----------------|
E|------------------------------------------|

Parte 6 de 13
   G             D/F#  Em
E|------------------------------------------|
B|-0---0----0-0--3-----0---0----0---0-------|
G|-0---0----0-0--2-----0---0----0---0-------|
D|-0---0----0-0--0-----2---2----2---2-------|
A|------------------------------------------|
E|-3-3---3--3-3--2-----0-0---0--0-0---0-----|

Parte 7 de 13
   A       (Frase 17)    Em
E|------------------------------------------|
B|-2---2-----------------0---0----0---0-----|
G|-2---2-----------------0---0----0---0-----|
D|-2---2----2-4-2--------2---2----2---2-----|
A|-0-0---0--------4-3-2---------------------|
E|-----------------------0-0---0--0-0---0---|

Parte 8 de 13
   A       (Frase 17)    Em       A
E|------------------------------------------|
B|-2---2-----------------0---0----2---2-----|
G|-2---2-----------------0---0----2---2-----|
D|-2---2----2-4-2--------2---2----2---2-----|
A|-0-0---0--------4-3-2-----------0-0---0---|
E|-----------------------0-0---0------------|
Parte 9 de 13
   Em       A
E|------------------------------------------|
B|-0---0----2---2---------------------------|
G|-0---0----2---2---------------------------|
D|-2---2----2---2---------------------------|
A|----------0-0---0-------------------------|
E|-0-0---0----------------------------------|

Parte 10 de 13
   D2   (Frase 14)
E|-0---0---0---0----0---0---0-----0---------|
B|-3---3---3---3----3---3---3-----3---------|
G|-2---2---0---0----2---2---0-----0---------|
D|-0-------------0--0-----------------------|
A|---------0-2-4------------0-2-0-----------|
E|---2---3------------2---3-----------------|

Parte 11 de 13
   D2               E  (Frase 15)
E|-0---0---0---0----0---0---0---0-----------|
B|-3---3---3---3----0---0---0---0-----------|
G|-2---2---0---0----1---1---1---1-----------|
D|-0-------------0--------------0-2---------|
A|---------0-2-4----------0-2-4-------------|
E|---2---3----------0-4---------------------|
Parte 12 de 13
   F7     G7     A7     Bb7  G  A 
E|---------------------------3--5-----------|
B|-1------3------5------6----3--5-----------|
G|-2------4------6------7----4--6-----------|
D|-1------3------5------6----5--7-----------|
A|---------------------------5--7-----------|
E|-1-3-5--3-5-7--5-7-8--6----3--5-----------|
                                ↓  ↓
[Parte 13 De 13]
   (Frase 18)
E|------------------------------------------|
B|--------------------------------------5---|
G|-------------------------------4---6------|
D|---------------------4-5-4-5-7---7---7--7-|
A|-----4----4-5-7--5-7----------------------|
E|-5-7----7---------------------------------|

( D2 (Frase 14) E  (Frase 15) )

A
  So you think you can stone me 
      D2         A (Frase 16)  C5
And spit in my eye?
 A
So you think you can love me 
     D7(2/4)      G
And leave me to die?
Em   A (Frase 17)  
Oh, baby!   
Em                       A (Frase 17)
   Can't do this to me, baby!
 Em            A
Just gotta get out
 Em             A 
Just gotta get right 
       D (Frase 14)  E (Frase 15)
Outta here!

( F  G  A  Bb  G  A  (Frase 18) )

[Sétima Parte]

Parte 1 de 8
   D        A/C#     Bm      Bb° Bm  Bb° Bm
E|-2---2------------------------------------|
B|-3---3----2---2----3---3---2---3---2---3--|
G|-2-2---2--2---2----4---4---0---4---0---4--|
D|-0--------2-2---2--4-4---4---2---4---2---4|
A|----------4--------2-------1---2---1---2--|
E|------------------------------------------|

[Parte 2 De 8]
   A(Frase 19)D    C#7      F#m
E|----------2----4--------------------------|
B|-2--------3----6---6----2---2-------------|
G|-2--------2-2--4---4----2---2-------------|
D|-2--------0----6-6---6--4-4---4-----------|
A|-0-------------4--------------------------|
E|---3-2-0----------------2-----------------|

Parte 3 de 8
   G        D/F#     Bm       F#m
E|------------------------------------------|
B|-0---0----3---3----3---3----2---2---------|
G|-0---0----2---2----4---4----2---2---------|
D|-0-0---0--0-0---0--4-4---4--4-4---4-------|
A|-------------------2----------------------|
E|-3--------2-----------------2-------------|

Parte 4 de 8
   Bm       F#m      Bm        Gm   A/G 
E|------------------------------------------|
B|-3---3----2---2----3---3-----3----3-------|
G|-4---4----2---2----4---4-----3----4-------|
D|-4-4---4--4-4---4--4-4---4---5----5-------|
A|-2-----------------2--------------0-------|
E|----------2------------------3----5-------|
                                    ↓
Parte 5 de 8
  D         (Frase 20)
E|-------5-----9----9----------------9----9-|
B|-7---7----12---12---10-------10-12---12---|
G|-7-7------12---12---11----11----10---10---|
D|-0---------------------12-------12--------|
A|------------------------------------------|
E|------------------------------------------|

[Parte 6 De 8]
  
E|----------------7----7--------------------|
B|-10------10--10---10----7-----7-----------|
G|-9-----9-----9----9-----8---8-------------|
D|-11-11-------10---------9-9---------------|
A|------------------------------------------|
E|------------------------------------------|

[Parte 7 De 8]
   
E|-----------------------0------------------|
B|-10-8-8--7-7------------------------------|
G|-9----9----8-8------1---------------------|
D|-10---10---9---9\7------------------------|
A|------------------------------------------|
E|--------------------0---------------------|

Parte 8 de 8
                             E
E|-----12----12----12----12--0---------------|
B|--14----12----11----10-----0---------------|
G|--14----13----12----11-----1---------------|
D|---------------------------2---------------|
A|---------------------------2---------------|
E|---------------------------0---------------|
                             ↑

D  A/C#  Bm  Bb°  Bm   Bb°  Bm   
             Oh, yeah! Oh, yeah!
  
( A  (Frase 19)  D  C#7  F#m  G   D/F# )

 Bm             F#m
Nothing really matters
Bm          F#m
Anyone can see
 Bm             Gm
Nothing really matters
 G/A                       D (Frase 20)
Nothing really matters to me
                      E
Any way the wind blows
Composição de Freddie Mercury
Colaboração e revisão:
  • Thiago Almeida
2.442 exibições
  • Simplificar cifra
    • ½ Tom
    • A
    • Bb
    • B
    • C
    • Db
    • D
    • Eb
    • E
    • F
    • F#
    • G
    • Ab
  • Adicionar à lista

    0 comentários

    Ver todos os comentários

    Conseguiu tocar?

    0 Tocaram 0 Ainda não

    Grave um vídeo tocando Bohemian Rhapsody e nos envie!

    00:00 / 00:00
    Outros vídeos desta música
    Repetir Qualidade Automático
    Outros vídeos desta música
    00:00 / 00:00
    Automático
    Capítulos
    • Apresentação / Equipamentos
    • Acordes Introdução
    • Tocando Introdução
    • Acordes Primeira Parte
    • Tocando Primeira Parte
    • Ensinando Primeira Parte
    • Tocando Segunda Parte
    • Tocando Base do Solo
    • Acordes Terceira Parte
    • Tocando Terceira Parte
    • Ensinando Terceira Parte
    • Tocando Quarta Parte
    • Ensinando Quarta Parte
    • Acordes Quinta Parte
    • Tocando Quinta Parte
    • Ensinando Quinta Parte
    • Acordes Sexta Parte
    • Tocando Sexta Parte
    • Ensinando Sexta Parte
    • Acordes Sétima Parte
    • Tocando Sétima Parte
    • Ensinando Sétima Parte
    • Encerramento

    Cifra Club Pro

    Aproveite o Cifra Club com benefícios exclusivos e sem anúncios
    Cifra Club Pro
    Aproveite o Cifra Club com benefícios exclusivos e sem anúncios
    OK