Cifra Club

Somebody To Love

Queen

Cifra: Principal (violão e guitarra)
exibições 208.632
Tom: Ab (forma dos acordes no tom de G) Capotraste na 1ª casa
[Intro]

G       D/F#  Em  C9  D4(7)
  Can an____ybo__dy  find me 
 C     C/B  D7  G   
Somebody   to  love?
G  D/F#  Em  C  D

Parte 1 de 3
   G   G D/F# Em C9 D4(7) C   C/B D7   G                             
E|-3---3--2---0--3--3-3---0-0-0---2----3----|
B|-3---3--3---0--3--1-1---1-1-1---1----3----|
G|-0---0--2---0--0--0-0---0-0-0---2----0----|
D|-0---0--0---2--2--0-0---2-2-x---0----0----|
A|-2---2--0---2--3--------3-3-2--------2----|
E|-3---3--2---0------------------------3----|
   ↓   ↓  ↓   ↓  ↓  ↓ ↓   ↓ ↓ ↓   ↓    ↓

Parte 2 de 3
         G      D/F#   Em          
E|---------------------0--------------------|
B|-------0-3------3----0---0----------------|
G|-0-0-2-0------2------0-------0------------|
D|-------0------0------2--------------------|
A|-------x------0------2--------------------|
E|-------3---3--2---2--0-0---0---0----------|

Parte 3 de 3
   C            D
E|-0------------2----3---5------------------|
B|-1---1--------3----0---3------------------|
G|-0-------0----2----4---5------------------|
D|-2------------0--0---0--------------------|
A|-3-3---3---3------------------------------|
E|------------------------------------------| 

[Primeira parte]

      G         D/F#     Em
Each morning I get up I die a little
     G       A7         D
Can barely stand on my feet
        G  D/F#        Em
Take a lo___ok in the mirror and cry
A7                            D
   Lord what you're doing to me
         G   
I have spent
        A7         D
All my years in believing you
       D          A7       D7    C9
But I just can't get no relief Lord


[Refrão]

 G
Somebody, ooh somebody 
    G   D/F#  Em   C9 
Can anybody  find me   
D4(7)              G    D/F#  Em  C  D
      Somebody to love?


[Segunda parte]

        G         D/F#      Em
I work hard everyday of my life
   G        A7         D
I work till I ache my bones
       G   D/F#  Em           
At the end (at the end of the day)
                A7
I take home my hard earned 
        D
Pay all on my own
       G                  A7
I get down (down) on my knees (knees)
        D
And I start to pray (praise the Lord)
          D         A7          D7
Till the tears run down from my eyes
 C9 
Lord 


[Refrão]

 G
Somebody (somebody) ooh somebody 
    G   D/F#  Em   C9 
Can anybody  find me   
D4(7)              G
      Somebody to l_________ove?


[Terceira parte]

C              
  (He works hard) Everyday (Everyday)
    C7
I try and I try and I try
    F
But everybody wants to put me down
         Fm  
They say    I'm goin' crazy
A7
   They say I got a lot of water in my 

brain,  got no common sense
                        D
I got nobody left to believe
D4
Yeah - yeah yeah yeah

[Base do solo]
G  D/F#  Em  G  A7  D
G  D/F#  Em  A7  D
G  A7  D  
D  A7  D7  C9


[Solo]

Parte 1 de 7
E|-----------------------------------------------------|
B|-b13r11-b13r11-b13r11-11b13~-11b13r11p9-11p9---------|
G|---------------------------------------------10~-----|
D|-----------------------------------------------------|
A|-----------------------------------------------------|
E|-----------------------------------------------------|

Parte 2 de 7
E|--------11-------------------------------------------|
B|---9-11b13-b13r11p9-11---------9---------------------|
G|-8---------------------8~-8/10-----------------------|
D|-----------------------------------------------------|
A|-----------------------------------------------------|
E|-----------------------------------------------------|

Parte 3 de 7
E|-----------------------------------------------------|
B|-11b13-b13-11b13-b13-11b13-b13-b13r11p9--------------|
G|----------------------------------------10~----------|
D|-----------------------------------------------------|
A|-----------------------------------------------------|
E|-----------------------------------------------------|

Parte 4 de 7
E|-----------------------------------------------------|
B|-11b13r11p9-11~------------16b18-16-14-13-14-16~-----|
G|----------------10b11-10-8---------------------------|
D|-----------------------------------------------------|
A|-----------------------------------------------------|
E|-----------------------------------------------------|

Parte 5 de 7
E|------------------------------15-16-18~--------------|
B|-14-13-15-16-18~--16-15-16-18------------------------|
G|-----------------------------------------------------|
D|-----------------------------------------------------|
A|-----------------------------------------------------|
E|-----------------------------------------------------|

Parte 6 de 7
E|-----------------------------------------------------|
B|-------------------11-10-9/8-------------------------|
G|---8-10-10b11r10-8-----------10b11r10p8----8~-10p8---|
D|-8--------------------------------------10-----------|
A|-----------------------------------------------------|
E|-----------------------------------------------------|

Parte 7 de 7
E|-----------------------------------------------------|

B|-----------------------------------------------------|

G|-----------------------------------------------------|

D|-8/9\8p6---6h8-6~------------------------------------|

A|---------8-------------------------------------------|

E|-----------------------------------------------------|


[Refrão]

 G
Somebody (somebody)
    G   D/F#  Em   C9 
Can anybody  find me   
D4(7)     G             D/F#  Em  C  D
      So___mebody to lo__________ve?


[Quarta parte]
   
        G   D/F#       Em
Got no feel I got no rhythm
   G         A7        D
I just keep losing my beat
    G      D/F#   Em
I'm OK I'm alright
       A7         D
Ain't gonna face no defeat
        G        A7
I just gotta get out 
          D
Of this prison cell
      D       A7        D7  C9 
Some day I'm gonna be free Lord


[Quinta parte]

G
  Find me somebody to love 
Find me somebody to love
Find me somebody to love 
Find me somebody to love
Find me somebody to love 
Find me somebody to love
Find me somebody to love 
Find me somebody to love love love
Find me somebody to love 
Find me somebody to love
Somebody somebody somebody somebody Somebody Find me 
Somebody find me somebody to love


[Refrão Final]

    G   D/F#  Em   C9  D4(7)
Can anybody  find me   

Somebody to love
G  D/F#    Em       C  D  G
  Find me somebody t___o love
 D/F#    Em       C  D  G
Find me somebody t___o love
 D/F#    Em       C  D  G
Find me somebody t___o love
 D/F#    Em       C  D  G
Find me somebody t___o love
Acordes para:
    Composição: Freddie Mercury Colaboração e revisão:

    0 comentários

    mostrar mais comentários

    Conseguiu tocar?

    15 tocaram 0 ainda não

    Grave um vídeo tocando Somebody To Love e mande pra gente!

    00:00 / 00:00
    outros vídeos desta música
    repetir qualidade Automático
    Outros vídeos desta música
    00:00 / 00:00
    Automático
    Capítulos
    • Tocando a música
    • Apresentação / Equipamentos
    • Acordes introdução
    • Tocando introdução
    • Dedilhado introdução
    • Dedilhado introdução - Parte 1 de 3
    • Dedilhado introdução - Parte 2 de 3
    • Dedilhado introdução - Parte 3 de 3
    • Dicas primeira parte
    • Acorde primeira parte
    • Tocando primeira parte
    • Ritmo primeira parte
    • Sequência primeira parte - lento
    • Dicas refrão
    • Tocando refrão
    • Ritmo refrão
    • Dicas segunda parte
    • Tocando segunda parte
    • Ritmo segunda parte
    • Acordes terceira parte
    • Tocando terceira parte
    • Ritmo terceira parte
    • Dicas repetições e quinta parte
    • Tocando quinta parte
    • Dicas refrão final
    • Tocando refrão final
    • Ritmo refrão final
    • Dicas solo
    • Tocando solo
    • Ensinando solo
    • Solo - Parte 1 de 7
    • Solo - Parte 2 de 7
    • Solo - Parte 3 de 7
    • Solo - Parte 4 de 7
    • Solo - Parte 5 de 7
    • Solo - Parte 6 de 7
    • Solo - Parte 7 de 7
    • Encerramento
    OK