Cifra Club

Another Rainy Night Without You

Queensrÿche

Cifra: Principal (violão e guitarra)
Selo Cifra Club: esta cifra foi revisada para atender aos critérios oficiais da nossa Equipe de Qualidade.
tom: C
             Bm        A5            Bm        G       Em
E|---------| |---------|-------------|---------|---------------------|
B|---2h3p2-| |-3---2---|-------2h3p2-|-3---2---|-7---7h8-5-----2h3p2-|
G|-4-------| |-------4-|-2---4-------|-------4-|-------------4-------|
D|---------| |---------|-------------|---------|---------------------|
A|---------| |---------|-------------|---------|---------------------|
E|---------| |---------|-------------|---------|---------------------|

Bm        A5  G5  Am          C   G   Am          F     G
E|--------|-------|-----------|-3-----|-----------|---------------|
B|3---2---|-------|-5-6-5-3---|-----3-|-5-6-5-3---|---3-5-3-------|
G|------4-|-2---0-|---------5-|-------|---------5-|-5-------5-4---|
D|--------|-------|-----------|-------|-----------|-------------5-|
A|--------|-------|-----------|-------|-----------|---------------|
E|--------|-------|-----------|-------|-----------|---------------|

Am
E|------3-| |
B|5-6-5---| |
G|--------| |
D|--------| |
A|--------| |
E|--------| |


Then after the intro (when the vocals start), switch to a clean tone
and play the following:
||--0-------|-0--------||
||--0-------|-0--------||
||*-5-------|-4-------*||  repeat 3x
||*-7-------|-5-------*||
||----------|----------||
||----------|----------||

Then, when the vocals go "You leave me wanting/Always leave me wanting more",
play this:
||---------------|-------0-----||
||-----0-----0---|-----0---3---||
||-------0-----0-|---0-------4-||
||---3-----3-----|-------------||
||---------------|-------------||
||-1-------------|-3-----------||
Then it's back to those other two chords with another guitar palm-muting
an open A.


When you get to the pre-chorus, play this:
||---------1-------|-------3---------|---------1-------|-------5-------|
||-------1---1-----|---------3h5-----|-------1---1-----|---------8-5---|
||-----3-------3---|-----5-------5---|-----3-------3---|-------------7-|
||---3-----------3-|---5-----------5-|---3-----------3-|-5-------------|
||-1---------------|-3---------------|-1---------------|-5-------------|
||-----------------|-----------------|-----------------|-3-------------|

                 w/distortion
E|--------1-------|---------3-| |
B|------1---1-----|---------3-| |
G|----3-------3---|-2-2-2---0-| |
D|--3-----------3-|-3-3-3---0-| |
A|1---------------|-3-3-3-----| |
E|----------------|-1-1-1---3-| |


Chorus:
||-----------|-3-----|-----------|---------------|-------3-|-(3)|
||-5-6-5-3---|-----3-|-5-6-5-3---|---3-5-3-------|-5-6-5---|----|
||---------5-|-------|---------5-|-5-------5-4---|---------|----|
||-----------|-------|-----------|-------------5-|---------|----|
||-----------|-------|-----------|---------------|---------|----|
||-----------|-------|-----------|---------------|---------|----|


E|-------|-----| |
B|-------|-----| |
G|-5-4---|-5-4-| |
D|-----7-|-----| |
A|-------|-----| |
E|-------|-----| |

Then it's back to the intro bit up to the Am chord and those clean chords
again, pre-chorus, chorus (except for the last 2 measures), and then the
bridge:

F
I know I've said it before

G
Hate the sound of the closing door

Bb                       A
You're footsteps walking away


When you play that last "A" chord, guitar 2 should do this:
||-4-----5-----7-----||
||---5-----5-----5---||
||-----4-----4-----4-||
||-------------------||
||-------------------||
||-------------------||
00:00 / 00:00
Outros vídeos desta música
Repetir
Outros vídeos desta música
2 exibições
    • ½ Tom
    • A
    • Bb
    • B
    • C
    • Db
    • D
    • Eb
    • E
    • F
    • F#
    • G
    • Ab
  • Adicionar à lista

Afinação da cifra

Afinador online

    0 comentários

    Ver todos os comentários

    Entre para o Cifra Club PRO

    Tenha acesso a benefícios exclusivos no App e no Site

    • Chega de anúncios

    • Mais recursos no app do Afinador

    • Atendimento Prioritário

    • Aumente seu limite de lista

    • Ajude a produzir mais conteúdo

    00:00 / 00:00

    Cifra Club Pro

    Aproveite o Cifra Club com benefícios exclusivos e sem anúncios
    Cifra Club Pro
    Aproveite o Cifra Club com benefícios exclusivos e sem anúncios
    OK