Cifra Club

Aprenda

Best I Can

Queensrÿche

Cifra: Principal (violão e guitarra)
tom: D
   synth.arr.for guitar            pick with fingers
E|------------------------12--|--12----------12--12----------12--|-------|
B|----------------------------|------12--12----------10--10------|-------|
G|------------------------9---|--9---9---9---9---9---9---9---9---|-------|
D|----------------------------|----------------------------------|-------|
A|----------------------------|----------------------------------|-------|
E|----------------------------|----------------------------------|-------|

E|---12----------12--12--10--10--12--|-----------------------------------|
B|-------13--13----------------------|-----------------------------------|
G|---9---9---9---9---9---9---9---9---|-----------------------------------|
D|-----------------------------------|-----------------------------------|
A|-----------------------------------|-----------------------------------|
E|-----------------------------------|-----------------------------------|

E|---12----------12--12------12--12--|----------12--12--10--12--|--------|
B|-------12--12----------10----------|--13--13------------------|--------|
G|---9---9---9---9---9---9---9---9---|--9---9---9---9---9---9---|--------|
D|-----------------------------------|--------------------------|--------|
A|-----------------------------------|--------------------------|--------|
E|-----------------------------------|--------------------------|--------|

    "A young man now...."
E|---------------------------------|-------------------------------------|
B|---------------------------------|-------------------------------------|
G|---------------------------------|-------------------------------------|
D|---------------------------------|-------------------------------------|
A|---------------------------------|-------------------------------------|
E|------0--------------------------|-------------------------------------|

       "I'm gonna be the best I can."
E|---------------------|--------------------------|----------------------|
B|---------------------|--------------------------|----------------------|
G|---------------------|--------5--------5-----2--|----------------------|
D|---------------------|-----5--------5--------2--|----------------------|
A|---------------------|--3--------2-----------0--|----------------------|
E|---------------------|--------------------------|----------------------|

E|------------------------------||-----2--------------------------|------|
B|------------------------2--2--||-----3--------8--------8--------|------|
G|------------------------2--2--||-----2--------7--------7--0--2--|------|
D|------------------------------||-----0-----0--------------0--0--|------|
A|------------------------------||--------------------------------|------|
E|------------------------------||--------------------------------|------|

E|-----------------------------|--------------------------|--------------|
B|---3--------6--------6-------|--3--------5--------5-----|--------------|
G|---2--------5--------5--0h2--|--2--------5--------5--5--|--------------|
D|---0-----0-------------------|--0-----0-----------------|--------------|
A|-----------------------------|--------------------------|--------------|
E|-----------------------------|--------------------------|--------------|

E|------------------------------|--2-----------------------------|-------|
B|---5--6--8--6-----5-----------|--3--------8-----------8--------|-------|
G|---5--5--5--5-----5--7--------|--2--------7-----------7--0--2--|-------|
D|------------------------0--0--|--0-----0-----------------0--0--|-------|
A|------------------------------|--------------------------------|-------|
E|------------------------------|--------------------------------|-------|

E|---2-------------------------|--2-----------------------|--------------|
B|---3--------6--------6-------|--3--------5--------5-----|--------------|
G|---2--------5--------5--0h2--|--2--------5--------5--5--|--------------|
D|---0-----0-------------------|--0-----0-----------------|--------------|
A|-----------------------------|--------------------------|--------------|
E|-----------------------------|--------------------------|--------------|

                                "I want to be a busy man.__
E|---------------------------||--------------------------|---------------|
B|---5--6--8--6-----5----10--||--------------------------|---------------|
G|---5--5--5--5-----5---/7---||-----------------------7--|---------------|
D|---------------------------||-----------------------8--|---------------|
A|---------------------------||--------------------------|---------------|
E|---------------------------||--------------------------|---------------|

E|------------------------------|----------------------------------------|
B|---------------------------8--|----------------------------------------|
G|---------------------------5--|----------------------------------------|
D|------------------------------|----------------------------------------|
A|------------------------------|----------------------------------------|
E|------------------------------|----------------------------------------|

    "I want to see a change in the future"
E|---------------------------|-------------------------|-----------------|
B|------------------------8--|--------------6h5p6--10--|-----------------|
G|------------------------5--|--------------5------7---|-----------------|
D|---------------------------|-------------------------|-----------------|
A|---------------------------|-------------------------|-----------------|
E|---------------------------|-------------------------|-----------------|

    "I'm gonna make the best of
E|------------------------------|----------------------------------------|
B|------------------------------|----------------------------------------|
G|---------------------------7--|----------------------------------------|
D|---------------------------8--|----------------------------------------|
A|------------------------------|----------------------------------------|
E|------------------------------|----------------------------------------|

          what I have"
E|-----------------------------------------------------------------------|
B|-----------------------------------------------------------------------|
G|-----------------------------------------------------------------------|
D|-----------------------------------------------------------------------|
A|-----------------------------------------------------------------------|
E|-----------------------------------------------------------------------|

    (with flanger--------------------------------------------------------|
E|-----------------0-----------------|-------0---------------------|------|
B|-----------------------------------|-------------------------10--|------|
G|------------5h7-----7-----5-----3--|--3h5-----5-----3--------7---|------|
D|-----------------------------------|-----------------------------|------|
A|------3----------------------------|-----------------------------|------|
E|-----------------------------------|-----------------------------|------|

    and so on with this riff....
E|------------------------------------------------|----------------------|
B|------------------------------------------------|----------------------|
G|------------------------------------------------|----------------------|
D|------------------------------------------------|----------------------|
A|------------------------------------------------|----------------------|
E|------------------------------------------------|----------------------|

    "And I won't let go,....."
E|---------------------------|-----------------------|-------------------|
B|------3-----------------5--|--3-----------3-----3--|-------------------|
G|------0-----------5-----5--|--0-----------0-----3--|-------------------|
D|------0-----------5-----5--|--0-----------0-----3--|-------------------|
A|---------------------------|--------------------1--|-------------------|
E|---3-----3--3--3-----3-----|-----3--3--3-----3-----|-------------------|

E|------------------------|-----------------------|----------------------|
B|------1-----------------|--3-----------3-----5--|----------------------|
G|------2--------------0--|--0-----------0-----5--|----------------------|
D|------3--------------0--|--0-----------0-----5--|----------------------|
A|------0-----------------|-----------------------|----------------------|
E|------------3--1--1--3--|-----3--3--3-----3-----|----------------------|

E|---------------------------|---------------------------|---------------|
B|------3-----------3--------|-----------------------8---|---------------|
G|------0-----------0-----8--|-----------------------10--|---------------|
D|------0-----------0-----8--|-----------------------10--|---------------|
A|------------------------6--|-----------------------8---|---------------|
E|---------3--3--3-----0-----|---------------------------|---------------|

E|---------------------------||------------------------------------------|
B|---------------------------||------------------------------------------|
G|---------------------------||------------------------------------------|
D|------------------------0--||------------------------------------------|
A|---------------------------||------------------------------------------|
E|---------------------------||------------------------------------------|

    (then play the chorus part)
E|---------------------------------------|-------------------------------|
B|---------------------------------------|-------------------------------|
G|---------------------------------------|-------------------------------|
D|---------------------------------------|-------------------------------|
A|---------------------------------------|-------------------------------|
E|---------------------------------------|-------------------------------|

       (then play the verse)                  pm----         pm
E|------------------------------------|--0--0-----------0--0-----|-------|
B|------------------------------------|--------------------------|-------|
G|------------------------------------|--------4--4-----------2--|-------|
D|------------------------------------|--------------------------|-------|
A|------------------------------------|--------------------------|-------|
E|------------------------------------|--------------------------|-------|

          pm---
E|---0--0-----------0--0-----||------------------------------------------|
B|------------------------3--||------------------------------------------|
G|---------5--5--------------||------------------------------------------|
D|---------------------------||------------------------------------------|
A|---------------------------||------------------------------------------|
E|---------------------------||------------------------------------------|

    I'm not going to tab the solo though.
E|------------------------------------------------------||---------------|
B|------------------------------------------------------||---------------|
G|------------------------------------------------------||---------------|
D|------------------------------------------------------||---------------|
A|------------------------------------------------------||---------------|
E|------------------------------------------------------||---------------|

    "Now I'm moving foward and I'm....."   
E|---------------------------|--------------------------|----------------|
B|---------------------------|-----------------------8--|----------------|
G|------------------------7--|-----------------------5--|----------------|
D|---0--0--0--0--0--0--0--8--|--0--0--0--0--0--0--0-----|----------------|
A|---------------------------|--------------------------|----------------|
E|---------------------------|--------------------------|----------------|


                      
E|-----------------------------|--------------------------|--------------|
B|--------3-----------------5--|-----3-----------3-----3--|--------------|
G|--------0-----------5-----5--|-----0-----------0-----3--|--------------|
D|--------0-----------5-----5--|-----0-----------0-----3--|--------------|
A|-----------------------------|-----------------------1--|--------------|
E|---(3)-----3--3--3-----3-----|--------3--3--3-----3-----|--------------|

E|------------------------|-----------------------------|----------------|
B|---1-----------------5--|-----------------------------|----------------|
G|---2-----------------5--|-----------------------------|----------------|
D|---3-----------------5--|-----------------------------|----------------|
A|---0-----------------3--|-----------------------------|----------------|
E|---------3-----1--------|--------------------------3--|----------------|

E|------------------------|-----------------------|----------------------|
B|---3-----------------5--|--3-----------3-----8--|----------------------|
G|---0-----------5-----5--|--0-----------0-----8--|----------------------|
D|---0-----------5-----5--|--0-----------0-----6--|----------------------|
A|------------------------|-----------------------|----------------------|
E|------3--3--3-----3-----|-----3--3--3-----0-----|----------------------|

E|----------------------------------|-----------------------3------------|
B|------------------------------8---|-----------------------3------------|
G|------------------------------10--|------------------------------------|
D|------------------------------10--|------------------------------------|
A|------------------------------8---|------------------------------------|
E|----------------------------------|------------------------------------|

         repeat 2x
E|---||---3--3--3--3--3--3--3--3--|--3--3--3--3--3----------3--|----------|
B|---||---3--3--3--3--3--3--3--3--|--3--3--3--3--3----------3--|----------|
G|---||*--0--0--0--0--0--2--2--2--|--2--3--3--3--3--5--5------|-----------|
D|---||*--------------------------|----------------------------|----------|
A|---||---------------------------|----------------------------|----------|
E|---||---------------------------|----------------------------|----------|

                                                          2x
E|---3--------3--3--3--3--3--|--3--3--3--3--3----------3---||-------------|
B|---3--------3--3--3--3--3--|--3--3--3--3--3----------3---||-------------|
G|------0--0--0--0--2--2--2--|--2--3--3--3--3--5--5------*||--------------|
D|---------------------------|----------------------------*||-------------|
A|---------------------------|-----------------------------||-------------|
E|---------------------------|-----------------------------||-------------|

                                     "The best man that I
E|------3--------3--3--3--3--3--|--3--3--3--3--3-------||-----------------|
B|------3--------3--3--3--3--3--|--3--3--3--3--3-------||-----------------|
G|---------0--0--0--0--2--2--2--|--2--3--3--3--3--5--5||------------------|
D|------------------------------|----------------------||-----------------|
A|------------------------------|----------------------||-----------------|
E|------------------------------|----------------------||-----------------|

          p.m.        p.m.        p.m.
E|---3--3--------3--3-----|-----3--------3--3----||-----------------------|
B|---3--3--------3--3-----|-----3--------3--3----||-----------------------|
G|---------0--0--------2--|--------3--3--------5||------------------------|
D|------------------------|----------------------||-----------------------|
A|------------------------|----------------------||-----------------------|
E|------------------------|----------------------||-----------------------|

    Repeat until song is done and fade out.
E|-----------------------------------------------------------------------|
B|-----------------------------------------------------------------------|
G|-----------------------------------------------------------------------|
D|-----------------------------------------------------------------------|
A|-----------------------------------------------------------------------|
E|-----------------------------------------------------------------------|
Composição de DeGarmo
Colaboração e revisão:
  • Ivan Neto
915 exibições
    • ½ Tom
    • A
    • Bb
    • B
    • C
    • Db
    • D
    • Eb
    • E
    • F
    • F#
    • G
    • Ab
  • Adicionar à lista

    0 comentários

    Ver todos os comentários

    Conseguiu tocar?

    0 Tocaram 0 Ainda não

    Grave um vídeo tocando Best I Can e nos envie!

    00:00 / 00:00
    outros vídeos desta música
    repetir qualidade Automático
    Outros vídeos desta música
    00:00 / 00:00
    Automático

    Cifra Club Pro

    Aproveite o Cifra Club com benefícios exclusivos e sem anúncios
    Cifra Club Pro
    Aproveite o Cifra Club com benefícios exclusivos e sem anúncios
    OK