Cifra Club

Neue Regel

Queensrÿche

Cifra: Principal (violão e guitarra)
Selo Cifra Club: esta cifra foi revisada para atender aos critérios oficiais da nossa Equipe de Qualidade.
tom: Bb
Standard tuning    Acoustic                                                                   
||------0-----------0----------------0--------0---------||---------------------
||-/-5--------5-----------5---/5--------5--------0------||---------------------
||*-------------------------------------------------9--*||---------------------
||*----------------------------------------8-----------*||---------------------
||------------------------------------------------------||---------------------
||------------------------------------------------------||---------------------                                                                                                                                                              
------------------------|--------------0--------------|------------------------
---------1-----------0--|--------------------0--------|------------------------
------0-----------0-----|--------2-----------------2--|------------------------
---2-----------0--------|-----2-----------------------|------------------------
3-----------2-----------|--0--------------------------|------------------------
------------------------|-----------------------------|------------------------                                                                                                                                                              
---------------------------||--------------------------------------------------
---------1-----------0-----||--------------------------------------------------
------0-----------0--------||--------------------------------------------------
---2-----------0--------2--||--------------------------------------------------
3-----------2-----------2--||--------------------------------------------------
------------------------0--||--------------------------------------------------                                                                                                                                                              
------------------------------------------------|------------------------------
------------------------------------------------|------------------------------
---------5-----------4-----------2-----4--2-----|------------------------------
---2--5--------2--5--------2--5--------2--0-----|------------------------------
0-----------0-----------0-----------------------|------------------------------
------------------------------------------------|------------------------------                                                                                                                                                              
------------------------------------------|------------------------------------
------------------------------------------|------------------------------------
---------5--------4-----------------------|------------------------------------
---2--5--------5-----------5--4-----------|------------------------------------
0-----------0--------0--------------------|------------------------------------
------------------------------------------|------------------------------------                                                                                                                                                              
------------------------------------------------|------------------------------
------------------------------------------------|------------------------------
---------5-----------4-----------2-----4--2-----|------------------------------
---2--5--------2--5--------2--5--------2--0-----|------------------------------
0-----------0-----------0-----------------------|------------------------------
------------------------------------------------|------------------------------                                                                                                                                                              
---------------------------------------------------------------|---------------
---------------------------------------------------------------|---------------
---------5--------4--5-----------4-----------2-----------------|---------------
---2--5--------5-----5-----------4-----------2-----------------|---------------
0-----------0--------3-----------2-----------0-----------------|---------------
---------------------------------------------------------------|---------------                                                                                                                                                              
------------------------------------------------------||-----------------------
------------------------------------------------------||-----------------------
5--------------4--------------------------------------||-----------------------
5--------------4-----------------2--------------------||-----------------------
3--------------2-----------------2--------------------||-----------------------
---------------------------------0--------------------||-----------------------                                                                               Fill                                                                           
--------------------------------------------------||-----------------||--------
-8-----------8--8--7--------8--------10--------7--||-----------------||--------
-5-----------5--5--5--------7--------7---------7--||-----------------||--------
--------------------------------------------------||-----------------||--------
--------------------------------------------------||-----------------||--------
--------------------------------------------------||--0--------------||--------                                                                                                                                                              
----------------------------------|----------------------------------|---------
----------------------------------|----------------------------------|---------
---4--------4--------4---7-----7--|--2-----2--------2-----2-----2h4--|---------
---2--------4-----x--5--/7--x--7--|--0-----2-----x--4-----4--x--4----|---------
----------------------------------|----------------------------------|---------
0---------------------------------|----------------------------------|---------                                                                                                                                                              
-----------------------------------------------------------------------||------
------------------------0--------0-------------------------------------||------
---4-----------------4--------4----------------5-----------5--------4--||------
---2--------2--4--5--------4--------2p0--------5-----------5--------5--||------
---------2-------------------------------3--x--3--------x--3-----x--3--||------
0----------------------------------------------------------------------||------                                                                                                                                                              
------------------------|-----------------------|------------------------------
------------------------|-----------8--7--------|------------------------------
9--9--------------------|--7--------7--7--------|--5---------------------------
9--9-----10p9--7--------|--7-----x--7--7--------|--5---------------------------
7--7--------------------|--5--x-----5--5--------|--3---------------------------
------------------------|-----------------------|------------------------------                                                                               
     Outro           Harm.                                                     
||---------------------------------------------------||------------------------
||---------------------------------------------------||------------------------
||*-------------------5--------------------2--------*||------------------------
||*----------------------------------------0--------*||------------------------
||----------------2----------------------------------||------------------------
||----0--0--0--0--0------0--0--0--------x------------||------------------------                                                                               =================================================================================                                            TABLATURE EXPLANATION                           =================================================================================
-----5h8--- Hammeron                   
----(8)--- Ghost Note          
------5p8-Pulloff                                                 
---5/8--- Slide Up                                         
---5\8--- Slide Down                                       
----5~~~-- Vibrato                   
-----x---- Dead Note
||------||
||*----*|| Repeat Start & End
||*----*||                            
||------||
Outros vídeos desta música
420 exibições
    • ½ Tom
    • A
    • Bb
    • B
    • C
    • Db
    • D
    • Eb
    • E
    • F
    • F#
    • G
    • Ab
  • Adicionar à lista

Afinação da cifra

Afinador online

    0 comentários

    Ver todos os comentários

    Entre para o Cifra Club PRO

    Tenha acesso a benefícios exclusivos no App e no Site

    • Chega de anúncios

    • Mais recursos no app do Afinador

    • Atendimento Prioritário

    • Aumente seu limite de lista

    • Ajude a produzir mais conteúdo

    Cifra Club Pro

    Aproveite o Cifra Club com benefícios exclusivos e sem anúncios
    Cifra Club Pro
    Aproveite o Cifra Club com benefícios exclusivos e sem anúncios
    OK