Cifra Club

Operation Mindcrime

Queensrÿche

Cifra: Principal (violão e guitarra)
Selo Cifra Club: esta cifra foi revisada para atender aos critérios oficiais da nossa Equipe de Qualidade.
tom: Db
E|E|-----------------------------------------------------------------|-------|

 Intro (x3)
E|--------------------------| \
B|--------------------------| \
G|-----------------------9--| \
D|-----------------------9--| \
A|------4-----4/5--------7--| \
E|---2-----2----------------| \
                                                                  \
right after that on the fourth part of the intro play this         A
                                                                  / 
E|-------------------------------| /
B|-------------------------------| /
G|--------------------4-2--------| /
D|--------------------4-2-2-4----| /
A|------4-----4/5-----2-0-2-4----| /
E|---2-----2--------------0-2----| /

E|E|-----------------------------------------------------------------|-------|--

Then play this on the heavier part

E|---------------------------------------------| \
B|-------------3-----------------3-------------| \
G|-------------2-----------------2-------2--1--| \
D|-------------0-----------------0---2---2--2--| \
A|------4------0----------4------0---2---------| \
E|---2-----2--------0--2-----2-------0---------| \
                                                         \
Then the second part of that play this                    B   
                                                         /
E|--------------------------------------------| /
B|-----------------3--------------------------| /
G|-----------------2------------------4-2-----| /
D|-----------------0------------------4-2-2-4-| /
A|---------4-------0----------4-------2-0-2-4-| /
E|---0--2-----2------------2-----2--------0-2-| /

E|E|-----------------------------------------------------------------|-------|---

Verse (x2)

E|-----------------------------------------| \
B|-----------------------------------------| \
G|----------2----------------------2-------| \
D|---4--4---2---4--4--------4--4---2---2~--|
A|---4--4---0---4--4--------4--4---0---2~--| /
E|---2--2-------2--2--------2--2-------0~--| /

after the second time play this part (like the intro)

E|-----------------------------------------------| \
B|-----------------------------------------------| \
G|-------------------9---------------------------| \
D|-------------------9---------------------7--6--|
A|------4------4/5---7-------4------4/5----7--6--| /
E|---2-----2--------------2-----2----------5--4--| /

then play this two more times until the bridge

E|-----------------------------------------| \
B|-----------------------------------------| \
G|----------2----------------------2-------| \
D|---4--4---2---4--4--------4--4---2---2~--|
A|---4--4---0---4--4--------4--4---0---2~--| /
E|---2--2-------2--2--------2--2-------0~--| /

E|-----------------------------------------------------------------|

the bridge goes like this

E|---------------------------------------------| \
B|---------------------------------------------| \
G|-6-----6-----6~9------6-----6-----6~4--------| \
D|-6-----6-----6~9------6-----6-----6~4--------| \
A|-4-4-4-4-4-4-4~7----0~4-4-4-4-4-4-4~2--------| \
E|---------------0-----------------------------| \
                                                             \
continued                                                     D
                                                             / 
E|-----------------------------------0-------0------| /
B|-------------------------------------0-------0----| /
G|---6-----6-----6~2-----2~4------~|-----1-------1--| /
D|---6-----6-----6~2-----2~4------~|-------2--------| /
A|-0~4-4-4-4-4-4-4~0-----0~2------~|----------------| /
E|--------------------------------------------------| /

E|-----------------------------------------------------------------|-
                   
then the chorus is  except last note is a B 

E|---------------------------------------------| \
B|---------------------------------------------| \
G|----------2----------------------2--\-\------| \
D|---4--4---2---4--4--------4--4---2---2~4-----|
A|---4--4---0---4--4--------4--4---0---2~4-----| /
E|---2--2-------2--2--------2--2-------0~2-----| /
                                     / /
E|-----------------------------------------------------------------|-

solo (rythem) part 1 is 

 part 2 is     
               play to drum feel
E|------------------------------------------------------|
B|------------------------------------------------------|
G|--------------------------------------------1--2--1---|
D|-6-----6-----6---6-6---6---2----------------2--2--2---|
A|-6-----6-----6---6-6---6---2--r| ing out----------------|
E|-4-4-4-4-4-4-4-4-4-4-4-4-4-0--------------------------|

on last line of solo the end is
 
E|--0-------0-----------|
B|----0-------0---------|
G|------1-------1-------|
D|--------2-------------|
A|----------------------|
E|----------------------|

E|-----------------------------------------------------------------|--

play parts < A > < B > < C > and < D > til last line is

E|---------------------------------------------|
B|-----------------3---------------------------|
G|-----------------2--------------4~~~---------|
D|-----------------0------4---4---4~~~r| ing-out-|
A|----------4------0------4---4---2~~~---------|
E|----0--2-----2----------2---2----------------|
 
Outros vídeos desta música
    • ½ Tom
    • A
    • Bb
    • B
    • C
    • Db
    • D
    • Eb
    • E
    • F
    • F#
    • G
    • Ab
  • Adicionar à lista

Afinação da cifra

Afinador online

    0 comentários

    Ver todos os comentários

    Entre para o Cifra Club PRO

    Tenha acesso a benefícios exclusivos no App e no Site

    • Chega de anúncios

    • Mais recursos no app do Afinador

    • Atendimento Prioritário

    • Aumente seu limite de lista

    • Ajude a produzir mais conteúdo

    Cifra Club Pro

    Aproveite o Cifra Club com benefícios exclusivos e sem anúncios
    Cifra Club Pro
    Aproveite o Cifra Club com benefícios exclusivos e sem anúncios
    OK