Cifra Club

Patron

Quilapayún

Cifra: Principal (violão e guitarra)
Selo Cifra Club: esta cifra foi revisada para atender aos critérios oficiais da nossa Equipe de Qualidade.
tom: F#m

Intro:
E|-12-------12-------12-|-10-------10-------10-|
B|----12-------12-------|----10-------10-------|
G|-11----11-------11----|-10----10-------10----|
D|----------------------|----------------------|
A|----------------------|----------------------|
E|----------------------|----------------------|

E|-9------9------9-9------9------9-|-7-----7-----7-10-------10-------10-|
B|---10-----10-------10-----10-----|---7-----7--------10-------10-------|
G|-9----9------9---9----9------9---|-7---7-----7---10----10-------10----|
D|---------------------------------|------------------------------------|
A|---------------------------------|------------------------------------|
E|---------------------------------|------------------------------------|

E|-9------9------9-9------9------9-|-12-------12-------12-|
B|---10-----10-------10-----10-----|----12-------12-------|
G|-9----9------9---9----9------9---|-11----11-------11----|
D|---------------------------------|----------------------|
A|---------------------------------|----------------------|
E|---------------------------------|----------------------|

E|-10-------10-------10-|-9------9------9-9------9------9-|-7-----7-----7-|
B|----10-------10-------|---10-----10-------10-----10-----|---7-----7-----|
G|-10----10-------10----|-9----9------9---9----9------9---|-7---7-----7---|
D|----------------------|---------------------------------|---------------|
A|----------------------|---------------------------------|---------------|
E|----------------------|---------------------------------|---------------|

  D         C#        F#m 
E|-5-----5-|-4-----4-|---------------------|
B|---7-----|---6-----|---------------------|
G|-----7---|-----6---|---2---------2-------|
D|---------|---------|---------------------|
A|-5-------|-4-------|-----4-5-4-----4-5-4-|
E|---------|---------|-2---------2---------|

Fa#m (V 4-5-4)
Patrón,
                               Bm 
esa sombra que tirita tras sus reces,
          F#m 
huella y arapos, comiendo a veces
D  (IV 4-2-0)
patrón,
Bm         C# 
por sus intereses
         F#m 
ahi va su peón.

Patrón,
esa sombra que levanta sus galpones
sudor trenzado con otros peones
patrón, por sus ambiciones
ahí va su peón
patrón.

Patrón,
esa sombra carne al sol que le rotura
con sueldo enano, su tierra oscura
patrón, y que usted disfruta
ahí va su peón

Patrón,
esa sombra como un nuevo Cristo que anda
piedra en el pecho, cruz en la espalda
patrón,
y tosiendo rabia
ahí va su peón
patrón.

Patrón,
una sombra y otra sombra hacen tormenta
y el vendaval no tiene rienda
patrón,
no hay quien lo detenga
ahí va su peón.

Patrón,
si esa sombra en luz estalla y ve que avanza
como una aurora en su garganta
patrón, se le vuelve daga
ese es su peón
patrón.
00:00 / 00:00
Outros vídeos desta música
Repetir
Outros vídeos desta música
37 exibições
    • ½ Tom
    • Am
    • Bbm
    • Bm
    • Cm
    • C#m
    • Dm
    • Ebm
    • Em
    • Fm
    • F#m
    • Gm
    • G#m
  • Adicionar à lista

Afinação da cifra

Afinador online

    0 comentários

    Ver todos os comentários

    Conseguiu tocar?

    0 Tocaram 0 Ainda não

    Grave um vídeo tocando Patron e nos envie!

    Toque também

    1. Imagem do artista Violeta Parra La Jardinera Violeta Parra
    2. Imagem do artista Victor Jara El Derecho de Vivir En Paz Victor Jara
    3. Imagem do artista Illapu Vuelvo para vivir Illapu
    4. Imagem do artista Inti-Illimani El Pueblo Unido Inti-Illimani

    Entre para o Cifra Club PRO

    Tenha acesso a benefícios exclusivos no App e no Site

    • Chega de anúncios

    • Mais recursos no app do Afinador

    • Atendimento Prioritário

    • Aumente seu limite de lista

    • Ajude a produzir mais conteúdo

    00:00 / 00:00

    Cifra Club Pro

    Aproveite o Cifra Club com benefícios exclusivos e sem anúncios
    Cifra Club Pro
    Aproveite o Cifra Club com benefícios exclusivos e sem anúncios
    OK