Cifra Club

Backliners

Quique González

Cifra: Principal (violão e guitarra)
Selo Cifra Club: esta cifra foi revisada para atender aos critérios oficiais da nossa Equipe de Qualidade.
tom: Em
B-|---3-5---5-3-5---------3-5---5-3-5-3-------3-5---5-3-5-3-------3------
G-|-4--- ------- -------4--- -----------4---4----------- ---4-2-4--------
D-|----- ------- ----------- ------- ----------- ------- ------- --------
A-|----- ------- ----------- ------- ----------- ------- ------- --------
E-|----- ------- ----------- ------- ----------- ------- ------- --------
        -       -           -       -           -       -       -
        -       -           -       -           -       -       -
        Em      C           G       D           Em      C       G     G  
Guitarra 2      -           -       -           -       -       -
e-|----- ------- ----------- ------- ----------- ------- ------- --------
B-|----- ---0--- ---1------- ---0--- ---3------- ---0--- ---1--- ---0----
G-|----- ---0--- ---0------- ---0--- -2---2----- ---0--- ---0--- ---0----
D-|----- -2----- -2--------- -------0----------- -2----- -2----- --------
A-|-----2-------3----------- -2-----------------2-------3------- -2------
E-|-------------------------3-----------------------------------3--------

    Em                 C 
Estaréis comprando un sándwich
   G        D 
en la gasolinera
    Em            C 
revisando los mensajes
      G       G  
en el móvil.
    Em                 C 
Estaréis pensando en alguien
   G        D 
devorando carretera
    Em            C            G  
ahora sólo soy un chico con problemas.
    Em                 C 
Estaréis en Buenos Aires
   G        D 
estaréis en Antequera
    Em            C              G        G  
durmiendo en el sleeper de un backliner.

   D          Dsus  D   C 
Mañana no estaréis aquí
Em        C                  Em 
para las chicas del rock and roll.
          C                  D 
para las chicas del rock and roll.


Si la prueba fue un desastre,
la sala estaba llena
"no te quedes con lo malo, nena",
te decía tu road manager
fírmame la camiseta
para todas las sobrinas del alcalde.
00:00 / 00:00
Outros vídeos desta música
Repetir
Outros vídeos desta música
25 exibições
    • ½ Tom
    • Am
    • Bbm
    • Bm
    • Cm
    • C#m
    • Dm
    • Ebm
    • Em
    • Fm
    • F#m
    • Gm
    • G#m
  • Adicionar à lista

Afinação da cifra

Afinador online

    0 comentários

    Ver todos os comentários

    Conseguiu tocar?

    0 Tocaram 0 Ainda não

    Grave um vídeo tocando Backliners e nos envie!

    Entre para o Cifra Club PRO

    Tenha acesso a benefícios exclusivos no App e no Site

    • Chega de anúncios

    • Mais recursos no app do Afinador

    • Atendimento Prioritário

    • Aumente seu limite de lista

    • Ajude a produzir mais conteúdo

    00:00 / 00:00

    Cifra Club Pro

    Aproveite o Cifra Club com benefícios exclusivos e sem anúncios
    Cifra Club Pro
    Aproveite o Cifra Club com benefícios exclusivos e sem anúncios
    OK