Cifra Club

Salitre

Quique González

Cifra: Principal (violão e guitarra)
Selo Cifra Club: esta cifra foi revisada para atender aos critérios oficiais da nossa Equipe de Qualidade.
tom: A
Intro
E|---------------------------------|
B|---------------------------------|
G|-1h2-x-----1-x-----2--x--2-x-1-x-|
D|-2---x---2---x---4----x--4-x-2-x-| x4
A|-0---x-0-----x-0------x--0-x-0-x-| las x = golpe sobre las cuerdas
E|---------------------------------| en el resto de la canción también

Estrofas (todas iguales)
  Te acariciaba el viento de poniente te llevó a la arena bañada en salitre
E|------------------------------------------------------------------------------|
B|------------------------------------------------------------------------------|
G|-1h2----------1-----------2--------------1-----2-----------1-----2--------2--1|
D|-2----------2-----------4--------------2-----2-----------2-----4----------4--2|
A|-0--------0-----------0--------------0-----0-----------0-----0------------0--0|
E|------------------------------------------------------------------------------|
(se repite)

Te acariciaba un marinero en tierra pero esta vez no era yo

Te conocí en Conil de la Frontera nunca es primavera donde tu creciste
Sigues teniendo carita de pena, pero no me mires con tus ojos tristes

A    E          A
uoo  Bañada en salitre
F#m           E             D         D E
Flota en la memoria de los días grises
A    E             A
uoo  Fumo en la ventana
F#m       E             D       D E
Veo tu silueta sobre el arrecife

Intro

Algunas flores crecen en las dunas
sube la marea y se hacen invisibles
Algunas duermen a la luz de la luna
persiguiendo sueños imposibles

A    E          A
uoo  Bañada en salitre
F#m           E             D         D E
Flota en la memoria de los días grises
A    E             A
uoo  Fumo en la ventana
F#m       E             D       D E
Veo tu silueta sobre el arrecife

Intro

Y ahora
tendré que salir a buscarme alguien que me arranque de cuajo la pena
E|---------------------------------------------------------------------|
B|---------------------------------------------------------------------|
G|-1h2----------1----------2----1------------2-----------1------------2|
D|-2----------2----------4----2------------2-----------2------------4--|
A|-0--------0----------0----0------------0-----------0------------0----|
E|---------------------------------------------------------------------|
            F#m                E
De alguna manera tendré que olvidarte
              D                 E    E E
Tengo que olvidarte de alguna manera

A    E          A
uoo  Bañada en salitre
F#m           E             D         D E
Flota en la memoria de los días grises
A    E             A
uoo  Fumo en la ventana
F#m       E             D       D E
Veo tu silueta sobre el arrecife

Intro

Las tablaturas están escritas para encajar con la frase de encima
y que se vea cómo va la guitarra con respecto a la letra,
el ritmo real es más constante.

El acompañamiento que suena por detrás casi toda la canción:

E|-9--9---11--8h9--9--9---11--8h9-|
B|---9--9---9--------9--9---9-----|
G|--------------------------------| Se repite
D|--------------------------------|
A|--------------------------------|
E|--------------------------------|
00:00 / 00:00
Outros vídeos desta música
Repetir
Outros vídeos desta música
676 exibições
    • ½ Tom
    • A
    • Bb
    • B
    • C
    • Db
    • D
    • Eb
    • E
    • F
    • F#
    • G
    • Ab
  • Adicionar à lista

Afinação da cifra

Afinador online

    0 comentários

    Ver todos os comentários

    Conseguiu tocar?

    0 Tocaram 0 Ainda não

    Grave um vídeo tocando Salitre e nos envie!

    Entre para o Cifra Club PRO

    Tenha acesso a benefícios exclusivos no App e no Site

    • Chega de anúncios

    • Mais recursos no app do Afinador

    • Atendimento Prioritário

    • Aumente seu limite de lista

    • Ajude a produzir mais conteúdo

    00:00 / 00:00

    Cifra Club Pro

    Aproveite o Cifra Club com benefícios exclusivos e sem anúncios
    Cifra Club Pro
    Aproveite o Cifra Club com benefícios exclusivos e sem anúncios
    OK