Cifra Club

Aprenda

Creep

Radiohead

Cifra: Principal (violão e guitarra)
Tom: G
[Intro] G  B  C  Cm

   G
E|------------------------------------------|
B|---------------3----------3---------------|
G|-----4----4------4---4------4-------------|
D|---5---5-----5-----5----------------------|
A|------------------------------------------|
E|-3----------------------3-----------------|

   B
E|------------------------------------------|
B|------------------------------------------|
G|-----8-----8-----9-----8----8-------------|
D|---9---9------9----9------9---9-----------|
A|------------------------------------------|
E|-7-------7-----------7--------------------|

   C
E|------------------------------------------|
B|------------------------------------------|
G|------9------9------10------9-----9-------|
D|---10---10------10-----10------10---10----|
A|------------------------------------------|
E|-8---------8--------------8---------------|

   Cm
E|------------------------------------------|
B|------------------------------------------|
G|---8------8-----------8-------8-----------|
D|-----10-----10---10-----10------10--------|
A|-----------------------------------10-----|
E|-8------8------8----8------8--------------|

[Primeira Estrofe]

   G
E|------------------------------------------|
B|------------------------------------------|
G|----------------4--------4----------------|
D|-----5----5-------5---5----5--------------|
A|---5---5-----5------5---------------------|
E|-3----------------------------------------|

   B
E|------------------------------------------|
B|------------------------------------------|
G|----------------8-----------8-------------|
D|-----9----9-------9---9-------9-----------|
A|---9---9-----9------9-----9---------------|
E|-7----------------------7-----------------|

   C
E|------------------------------------------|
B|------------------------------------------|
G|---------------9-------9--------------9---|
D|------10----10---10------10----10-------10|
A|---10----10---------10------10-----10-----|
E|-8----------------------------------------|

   Cm
E|------------------------------------------|
B|------------------------------------------|
G|------------8----------8-----------8------|
D|------10------10----10---10----10----10---|
A|---10----10------10---------10----------10|
E|-8----------------------------------------|

                      G
When you were here before
                         B
Couldn't look you in the eye
                    C
You're just like an angel
                     Cm
Your skin makes me cry

[Segunda Estrofe]

  G
E|----------------3--------3----------------|
B|----------------3--------3----------------|
G|-----4----4-------4---4----4--------------|
D|---5---5-----5------5---------------------|
A|------------------------------------------|
E|-3----------------------------------------|

   B
E|-----------------7----------7-------------|
B|-----------7---7---7---7------7-----------|
G|-----8---8---8-------8--------------------|
D|---9---9------------------9---------------|
A|------------------------------------------|
E|-7----------------------------------------|

   C
E|------------------8---------8-------------|
B|-------------8----8-----------8-----------|
G|------9----9----9---9----9------9---------|
D|---10---10------------10------------------|
A|------------------------------------------|
E|-8----------------------------------------|

   Cm
E|------------------------------------------|
B|------------8------8---------8------------|
G|------8-------8------8----8----8----------|
D|---10---10------10-----10--------10-------|
A|------------------------------------------|
E|-8----------------------------------------|

                  G
You float like a feather
                B
In a beautiful world
               C
I wish I was special
                    Cm
You're so fucking special

[Primeiro Refrão]

(Guitarra Solo)

E|------------------------------------------|
B|------------------------------------------|
G|-4----8----5...--7...--8...--10~~/12------|
D|-5----9-----------------------------------|
A|-5----9----3...--5...--6...---8~~/10------|
E|-3----7-----------------------------------|

            G
But I'm a creep
       B
I'm a weirdo
                          C
What the hell am I doing here?
           Cm
I don't belong here

[Terceira Estrofe]

   G
E|------------------------------------------|
B|------------------------------------------|
G|---------------4---------4----------------|
D|-----5----5------5---5-----5--------------|
A|---5----5----5-----5----------------------|
E|-3----------------------------------------|

   B
E|------------------------------------------|
B|------------------------------------------|
G|---------------8----------8---------------|
D|-----9----9------9---9------9-------------|
A|---9----9----9-----9----------------------|
E|-7----------------------7-----------------|

   C
E|------------------------------------------|
B|------------------------------------------|
G|--------------------9-------------9-------|
D|------10-----10-------10----10------10----|
A|---10-----10-----10------10---------------|
E|-8------------------------------8---------|

   Cm
E|------------------------------------------|
B|------------------------------------------|
G|------------8---------------------8-------|
D|------10------10----10------10------10----|
A|---10----10------10------10----10------10-|
E|-8---------------------8------------------|

                    G
I don't care if it hurts
                  B
I wanna have control
                   C
I wanna a perfect body
                   Cm
I wanna a perfect soul

[Quarta Estrofe]

   G
E|----------------3-------------------------|
B|----------------3-------------------------|
G|-----------4------4---4----4--------------|
D|-----5---5----5-----5--------5------------|
A|---5---5----------------------------------|
E|-3-----------------------3----------------|

   B
E|---------------7--------------------------|
B|-----------------7------------------------|
G|-----8----8--------8----8-----------------|
D|---9----9----9-------9----9---------------|
A|----------------------------9-------------|
E|-7----------------------------------------|

   C
E|------------------8-----------------------|
B|--------------------8---------------------|
G|------9-----9---------9-----9-------------|
D|---10----10----10-------10----10----------|
A|---------------------------------10-------|
E|-8----------------------------------------|

   Cm
E|------------------------------------------|
B|---8-----------------8--------------------|
G|-----8----8------------8----8----8--------|
D|-------10---10----10-----10--------10-----|
A|---------------10-------------------------|
E|-8-----------------------------8----------|

               G
I want you to notice
               B
When I'm not around
                    C
You're so fucking special
               Cm
I wish I was special

[Segundo Refrão]

(Guitarra Solo)

E|------------------------------------------|
B|------------------------------------------|
G|-4----8----5...--7...--8...--10...--------|
D|-5----9-----------------------------------|
A|-5----9----3...--5...--6...--8-...--------|
E|-3----7-----------------------------------|

            G
But I'm a creep
       B
I'm a weirdo
                          C
What the hell am I doing here?
            Cm
I don't belong here

[Interlúdio]

(Guitarra Solo)

E|------------------------------------------|
B|------------------------------------------|
G|-12...-8...-11...-9...-12...-8...-17...---|
D|------------------------------------------|
A|-10...-6...-9-...-7...-10...-6...-15...---|
E|------------------------------------------|

E|------------------------------------------|
B|------------------------------------------|
G|-16...12...11...14...12...9...8~~\5~~\4---|
D|------------------------------------------|
A|-14...10...9-...12...10...7...6~~\3~~\2---|
E|------------------------------------------|

  G                        B
She's running out the door
  C
She's running out
     Cm                G  B
She run, run, run, run
 C  Cm
Run

[Quinta Estrofe]

   G
E|------------------------------------------|
B|------------------------------------------|
G|-----------4--------------4---------------|
D|-----5---5----5-----5---5----5------------|
A|---5---5--------5-----5-------------------|
E|-3----------------3-----------------------|

   B
E|------------------------------------------|
B|------------------------------------------|
G|-----------8--------------8---------------|
D|-----9---9----9-----9---9----9------------|
A|---9---9--------9-----9-------------------|
E|-7----------------7-----------------------|

   C
E|------------------------------------------|
B|------------------------------------------|
G|---------------9-------------------9------|
D|------10----10----10------10----10----10--|
A|---10----10----------10------10-----------|
E|-8----------------------8-----------------|

   Cm
E|------------------------------------------|
B|------------------------------------------|
G|---------------8-------------------8------|
D|------10----10----10------10----10--------|
A|---10----10----------10------10-----------|
E|-8----------------------8-----------------|

                    G
Whatever makes you happy
              B
Whatever you want
             C
So fucking special
               Cm
I wish I was special

[Terceiro Refrão]

   G
E|----------------3--------3----------------|
B|------------------3------3----------------|
G|-----4----4-4-------4------4--------------|
D|---5---5------5-------5------5------------|
A|------------------------------------------|
E|-3----------------------------------------|

   B
E|----------------7-------------------------|
B|-----------7----7-------------------------|
G|-----8---8----8---8---8----8--------------|
D|---9---9------------9--------9------------|
A|------------------------------------------|
E|-7-----------------------7----------------|

   C
E|------------------8-----------------------|
B|-----8------------8-8---8-----8-----------|
G|---9---8----9---------9---------9---------|
D|---------10----10----------10-------------|
A|------------------------------------------|
E|-8----------------------------------------|

   Cm
E|------------------------------------------|
B|------------------------------------------|
G|-8----------------------------------------|
D|-10---------------------------------------|
A|-10---------------------------------------|
E|-8----------------------------------------|

            G
But I'm a creep
       B
I'm a weirdo
                          C
What the hell am I doing here?
           Cm
I don't belong here
           G
I don't belong here
Composição de Albert Hammond / Mike Hazlewood / Radiohead
Colaboração e revisão:
1.312.760 exibições
  • Simplificar cifra
    • ½ Tom
    • A
    • Bb
    • B
    • C
    • Db
    • D
    • Eb
    • E
    • F
    • F#
    • G
    • Ab
  • Adicionar à lista

    0 comentários

    Mostrar mais comentários

    Conseguiu tocar?

    240 Tocaram 15 Ainda não

    Grave um vídeo tocando Creep e mande pra gente!

    00:00 / 00:00
    outros vídeos desta música
    repetir qualidade Automático
    Outros vídeos desta música
    00:00 / 00:00
    Automático
    Capítulos
    • Início
    • Tocando a música
    • Acordes da música
    • Tocando Introdução
    • Ensinando Introdução
    • Tocando Primeira e Segunda Estrofes
    • Ensinando Primeira Estrofe
    • Ensinando Segunda Estrofe
    • Tocando Primeiro Refrão
    • Ensinando Primeiro Refrão - Guitarra Base
    • Ensinando Primeiro Refrão - Guitarra Solo
    • Tocando Terceira e Quarta Estrofes
    • Ensinando Terceira Estrofe
    • Ensinando Quarta Estrofe
    • Tocando Segundo Refrão
    • Ensinando Segundo Refrão - Guitarra Solo
    • Tocando Interlúdio
    • Ensinando Interlúdio
    • Tocando Quinta Estrofe e Final
    • Ensinando Quinta Estrofe
    • Ensinando Refrão Final
    • Encerramento

    Cifra Club Pro

    Aproveite o Cifra Club com benefícios exclusivos e sem anúncios
    Cifra Club Pro
    Aproveite o Cifra Club com benefícios exclusivos e sem anúncios
    OK