Notificações Amigos pendentes

      Radiohead

      The Tourist

      9.251 exibições
      Tom: B
      B                                               F#m
                                                 ********                                     
      
      E---|-----0-----------0-----------0-----------------|-----2-----------2---------
      B---|--------4-----------4-----------4-----5--4-----|-----------2---------------
      G---|--4--------4-----------4-----------4--6--4--4--|--2-----2-----------2------
      D---|--4-----------4-----------4-----------------6--|--4-----------4------------
      A---|--2-----------2-----------2--------------------|--4------------------------
      E---|-----------------------------------------------|--2------------------------
      
                                                                                      
      * = Tocado por duas guitarras, com variações.
      
             A                                         G#
      
      
      E---------5-----------5-----------5-----------|-----4-----------4---------------
      B---4-----------5-----------5-----------5-----|-----------4-----------4---------
      G------6-----6-----------6-----------6--------|--5-----5-----------5------------
      D------7-----------7-----------7-----------7--|--6-----------6-----------6------
      A------7-----------7-----------7-----------7--|--6-----------6-----------6------
      E------5--------------------------------------|--4------------------------------                                                                  
      
      
      E---4---------------------||
      B---------4---------------||
      G------5--------6--5--3--*||
      D------------------------*||
      A-------------------------||
      E-------------------------||
      
      
                                                                                      
      Verse:
      
      B-----F#m-----A-----G#
      
      
      Chorus:
      
      B---------F#m------Am
      
      
      Chorus ao final da música:
      
      B--E-B--E-F#m------Am
      
      
      
      Acordes:
          EADGBe
      B   x24442
      F#m 244222
      A   577655
      G#  466544
      Am  x02210
      E   xx245x
      
      Letra:
      
      It barks at no-one else but me,
      like it's seen a ghost.
      I guess it's seen the sparks a-flowin,
      no-one else would know.
      
      Hey man, slow down...slow down
      Idiot, slow down....slow down
      
      Sometimes I get overcharged,
      thats when you see sparks.
      They ask me where the hell I'm going,
      at a 1000 feet per second.
      
      Hey man, slow down...slow down
      Idiot, slow down....slow down
      
      Solo Final:
      
      
      e----------------------8---7h8p7-
      B-7---7--5-----9^(1/4)-----------
      G--------------------------------
      D--------------------------------
      A--------------------------------
      E--------------------------------
      
      
      
      ---------------------------------------------------------------------------------------------------
      
      
      
      Tuning: EAEGBe
      Gtr.1
      Rhy 1
      
      e---0--------0--------0-------------------2-----------2---------5----------5------------4---------4-----------
      B-------0--------0--------0--------------------2---------------------5-----------5-----------4--------4-------
      G-----8--------8--------8----9---8-----------2---------------------6----------6------------5--------5---------
      E-9--------9--------9---------------9---4-----------------4--7----------7----------7--6---------6-------------
      A-9--------9--------9---------------9---4----------4------4--7----------7----------7--6---------6-------------
      E-7--------7--------7---------------7---2----------2------2--5----------5----------5--4---------4-------------
      
      Gtr.2
       Riff 1
      
      e-------------------------------------------------------------------------------------------------------------
      B-------------------------------------------------------------------------------------------------------------
      G-------------------------------------------------------------------------------------------------------------
      E-7--------------------------9----7--4--2-----------------4---5------------------------8---------9---11-------
      A-------------------------------------------------------------------------------------------------------------
      E-------------------------------------------------------------------------------------------------------------
      
      Gtr.1
                            End Rhy 1
      
      e----4--------------------------------------------------------------------------------------------------------
      B--------4----------------------------------------------------------------------------------------------------
      G------5-----6---5------------------- Rhy 1 --------------------- Rhy1 ---------------------------------------
      E-6-----------------6-----------------------------------------------------------------------------------------
      A-6-----------------6-----------------------------------------------------------------------------------------
      E-4-----------------4-----------------------------------------------------------------------------------------
      
      
         End Riff 1
      
      e-------------------------------------------------------------------------------------------------------------
      B-------------------------------------------------------------------------------------------------------------
      G----------------------------------------------------------------- Riff 1 ------------------------------------
      E-4-----------------------------------------------------------------------------------------------------------
      A-------------------------------------------------------------------------------------------------------------
      E-------------------------------------------------------------------------------------------------------------
      
      Chorus
       Rhy 2
       
      
      e-----7--------------7--------------------------2------------------2-----------------------------5------------
      B-!-7-----7---7------------7---------7---------------2-------------------2----------2----------------5--------
      G-!-8-----------8---------------8----------!-2-----2-----2----2----------------2------------!-5----5------5---
      E-!-9---9---9-----9-----9---------9--------!-4---------4--------------4----------------4-0--!-7---------7-----
      A-!-9------------------------9----------9--!-4--------------4----4-----------4---4----------!-7-------------5-
      E-!-7--------------------------------------!-2----------------------------------------------!-5---------------
      
      
                             End Rhy 2
      
      e------5----------------------------------------------5-------------------------
      B-5--------------------5----------------------------------5---------------------
      G------------5---5-------------------- Rhy 2 x5/6-------------------------------
      E---7-----7-----------------------------------------------------------9---------
      A------------------7-----7--------------------------------------------9---------
      E---------------------------------------------------------------x--x--7---0-----
      
      Gtr.1
       Rhy3________________________________________________________________________________________________________]
      
      e---------------------0----------------------0---------------------0---------------0-------0----------0--0----
      B-----------------------0-------------------------0---------0------------0---------------------0------0----0--
      G-8---8------9----------------0--9--------2-------------2-------------2--------2---------5---5----5----------5
      D-9---9------9------9------9-----9--------4-----4---------------4----------------4----0--7----------7---------
      A-9---9------7------9------9-----7--------4-----------4---------------------4------------7--------------------
      E-7---7-7-0------0--7------7--------x--0--2----------------------------------------------5--------------5-----
      
      Gtr.2 fuzz w/ feedback ()=place where it sound like
      
      
      e-------------------------------------------------------------------------------------------------------------
      B----------------------------------------------------------------------------------------(13)-------(12h13p12)
      G-(11)------(11)--------------(15)-------(13)-----------------------------------------------------------------
      E-------------------------------------------------------------------------------------------------------------
      A--9---------9-------9p7-------6----------4-----------------------------------------------3-----------p2h3p2--
      E-------------------------------------------------------------------------------------------------------------
      
      
      
      e-------------------------------------------------------------------------------------------------------------
      B-------------------------------------------------------------------------------------------------------------
      G-- Rhy 1--- Rhy 1& Riff 1-- Rhy 2 x1 5/6---------------------------------------------------------------------
      E-------------------------------------------------------------------------------------------------------------
      A-------------------------------------------------------------------------------------------------------------
      E-------------------------------------------------------------------------------------------------------------
      
      Gtr.2 & Gtr.1 w Rhy 3                                    .5                     .5     
      
      e---------------------------------0---------------------------------2-------2------2--------0---0---0---0-----
      B-------------------------------------------2--------2--4/\-2-------2-------2--4/\-2---4/5----5---5---5---5---
      G--9--9--9--8---9-9--9--8---8-8-------2--4-----2--4------------2--4----2--4-----------------------------------
      E--7--7--7--9---7-7--7--9---9-9-------------------------------------------------------------------------------
      A-----------9-----------9---9-9-------------------------------------------------------------------------------
      E-----------7-----------7---7-7-------------------------------------------------------------------------------
      
      
                                                                   .5                    .5
      
      e-0---0-----------------------------------------2-------2------2-------2-------2------2-------0---0---0---0---
      B---5---5--x------------------------------------2-------2--4/\-2-------2-------2--4/\-2---4/5---5---5---5---5-
      G----------x--9--9-8----9-9--9-8----------2--4-----2--4-----------2--4----2--4--------------------------------
      E----------x--7--7-9----7-7--7-9----9-9-----------------------------------------------------------------------
      A------------------9-----------9----9-9-----------------------------------------------------------------------
      E------------------7-----------7----7-7-----------------------------------------------------------------------
      
      
                                                                                      .5    .5
      
      e-0---0-------11-11-11-11-11-11-11-11-11-11--9--9--9-7-7-7--5-5-5-5-5-5-5-5-5-----------------------0---0-----
      B---5---5--5/-12-12-12-12-12-12-12-12-12-12-10-10-10-9-9-9--7-7-7-7-7-7-7-7-7--4/\-2-4/\2----2--4/5---5---5---
      G-----------------------------------------------------------6-6-6-6-6-6-6-6-6--------------4------------------
      E-------------------------------------------------------------------------------------------------------------
      A-------------------------------------------------------------------------------------------------------------
      E-------------------------------------------------------------------------------------------------------------
      
      
                                                                        .5                    .5
      
      e-0---0---0---0-----------------------------------------2-----------------------------------------------------
      B---5---5---5---5---------------------------------------2------2-4/\-2-------2-------2-4/\-2--1---3---3/5--5--
      G------------------x--9--x--8----9-9--9--8---------2--4----2-4----------2--4----2--4--------------------------
      E------------------x--7--x--9----7-7--7--9---9-9--------------------------------------------------------------
      A---------------------------9------------9---9-9--------------------------------------------------------------
      E---------------------------7------------7---7-7--------------------------------------------------------------
      
      
                                                                .5                               .5
      
      e----------11--11--11-11--11---------------14-------14--16/\--14----------------------------------------------
      B----------12--12--12-12--12---------14p16----14p16-----------------------14---------14--16/\-14----------14--
      G--9-9------------------------9-----------------------------------14--16------14--16---------------14--16-----
      E--7-7------------------------7-------------------------------------------------------------------------------
      A-------------------------------------------------------------------------------------------------------------
      E------0-------------------------0----------------------------------------------------------------------------
      
      
                      .5
      
      e-------------------------------------------------------------------------------------------------------------
      B---------14--16/\-14--13-------------------------------------------------------------------------------------
      G--14--16-------------------------------9---9---8-------------------------------------------------------------
      E---------------------------------------7---7---9-------------------------------------------------------------
      A-------------------------------------x---------9-------------------------------------------------------------
      E-------------------------------------x---------7-------------------------------------------------------------
      
      
      
      Para qualquer tablatura ou novidade sobre o Radiohead, me escreva:
      
      Golfinho: te amo, Nénem!!!

      Comentários 0

      140 .
      140 cancelar

      conseguiu tocar?

      covers

      Grave um vídeo tocando The Tourist e mande pra gente!

      Ex.: http://www.youtube.com/watch?v=0IvSvIwGdwk
      ver covers de outras músicas »
      0:00 / 0:00

      Capítulos

        3 versões de violão dificuldade exibições contribuição e correção
        3 versões de guitarra dificuldade exibições contribuição e correção
        3 versões de cavaco dificuldade exibições contribuição e correção
        3 versões de teclado dificuldade exibições contribuição e correção
        2 versões de baixo exibições contribuição e correção
        1 versão de bateria exibições contribuição e correção
        1 versão de Guitar Proformatodownloadscontribuição
        play/pausefechar subir/descer velocidade
        6ª corda E5ª corda A4ª corda D3ª corda G2ª corda B1ª corda E
          acordes
          publicidade
          fechar
          ok