Cifra Club

Aprenda

Ciúme

Rafael Castro

Cifra: Principal (violão e guitarra)
tom: F
(INTRO)
E  |------------------8--------------------|
B  |------------8-10----10-8-10------------|
G  |--7-9-10-------------------------------|
D  |---------------------------------------|
A  |---------------------------------------|
E  |---------------------------------------|

E  |--13--------------------12-------------|
B  |------13--------------------11---------|
G  |----------14--------------------12-----|
D  |---------------------------------------|
A  |---------------------------------------|
E  |---------------------------------------|(x2)



   Dm          C
O ciúme é uma coisa ruim
      Bb             A
Você sente ciúme de mim

        Dm          C
Eu sou teu, você é minha também
       Bb              A
Que loucura, ciúme de quem

F   C              F
Calma, não tem mulher aqui
    A
Se tem, nem percebi



(RIFF 2)
E  |-----------------------|
B  |-----------------------|
G  |--10--------12---9-----|
D  |-----------------------|
A  |-----------------------|
E  |-----------------------|


              F             A
Tô com meus brothers, não sei, não vi

Bb5
    Isso é viagem
C5
    Não entra nessa, meu bem



(RIFF 3)
E  |-------------------------|
B  |-------6--6/7--6---------|
G  |---5-5------------7------|
D  |-------------------------|
A  |-------------------------|
E  |-------------------------|

E  |-------------------------|
B  |-------6-8/10--8--6------|
G  |---5-5-------------------|
D  |-------------------------|
A  |-------------------------|
E  |-------------------------|


Bb5                 C5
    Isso é viagem,     não entra nessa

   Dm          C
O ciúme é uma coisa ruim
      Bb             A
Você sente ciúme de mim

        Dm          C
Eu sou teu, você é minha também
       Bb             A
Que loucura, ciúme de quem



(INTRO 2x)


   Dm         C
O ciúme é uma coisa ruim
      Bb             A
Você sente ciúme de mim

        Dm          C
Eu sou teu, você é minha também
       Bb             A
Que loucura, ciúme de quem

F   C              F
Calma, não tem mulher aqui
    A
Se tem, nem percebi



(RIFF 2)


              F            A
Tô com meus brothers, não sei, não vi

Bb5
    Isso é viagem
C5
    Não entra nessa, meu bem



(RIFF 3)



Bb5                     C5
    Isso é viagem...



(RIFF 3)



Bb5
    Isso é viagem
C5
    Não entra nessa, meu bem



(RIFF 3)



Bb5                  C5
     Isso é viagem,     não entra nessa



(RIFF FINAL)
E  |---------------------------------|
B  |----------------15---------------|
G  |--14-14---14-17----12---12-12----|
D  |---------------------------------|
A  |---------------------------------|
E  |---------------------------------|

E  |--------------------------11b12-11b12-|
B  |--------------------------------------|
G  |--14/12--10/9--7/9--6~----------------|
D  |--------------------------------------|
A  |--------------------------------------|
E  |--------------------------------------|

(Eu sou teu, você é minha também...)
E  |---------------------------------------|
B  |---------------------------------------|
G  |---------------------------------------|
D  |--0-0----------------------------------|
A  |--------12-10-8-7---10-10-8-7----------|
E  |---------------------------------------|

(Que loucura, ciúme de quem?)
E  |---------------------------------------|
B  |---------------------------------------|
G  |---------------------------------------|
D  |---------------------------------------|
A  |---------------------------------------|
E  |----------------5-7--9--5~-------------|
Composição de Rafael Castro
Colaboração e revisão:
  • Bruno Godoy
311 exibições
    • ½ Tom
    • A
    • Bb
    • B
    • C
    • Db
    • D
    • Eb
    • E
    • F
    • F#
    • G
    • Ab
  • Adicionar à lista

    0 comentários

    Ver todos os comentários

    Conseguiu tocar?

    1 Tocaram 0 Ainda não

    Grave um vídeo tocando Ciúme e nos envie!

    00:00 / 00:00
    Outros vídeos desta música
    Repetir Qualidade Automático
    Outros vídeos desta música
    00:00 / 00:00
    Automático

    Cifra Club Pro

    Aproveite o Cifra Club com benefícios exclusivos e sem anúncios
    Cifra Club Pro
    Aproveite o Cifra Club com benefícios exclusivos e sem anúncios
    OK