Cifra Club

Te dejo volver

Ráfaga

Cifra: Principal (violão e guitarra)
Selo Cifra Club: esta cifra foi revisada para atender aos critérios oficiais da nossa Equipe de Qualidade.
tom: C
Intro :

E|-----------------------------|
B|-----------------------------|
G|-5*--4*-7*-5*--5*-9*-10*-----| * Usar control del volumen
D|-----------------------------|
A|-----------------------------|
E|-----------------------------|

E|--------------------------------|
B|-131313-------------------------|
G|--------151515b-14h15p14--------|
D|-------------------------14/15--|
A|--------------------------------|
E|--------------------------------|

E|------------------------|
B|-131313-------------16~-|
G|--------15p14h15p14-----|
D|------------------------|
A|------------------------|
E|------------------------|

E|------------------------|
B|-15-15h16p15-----13b-13-|
G|-------------15~--------|
D|------------------------|
A|------------------------|
E|------------------------|
Outros vídeos desta música
    61 exibições
      • ½ Tom
      • A
      • Bb
      • B
      • C
      • Db
      • D
      • Eb
      • E
      • F
      • F#
      • G
      • Ab
    • Adicionar à lista

    Afinação da cifra

    Afinador online

      0 comentários

      Ver todos os comentários

      Conseguiu tocar?

      0Tocaram0Ainda não

      Grave um vídeo tocando Te dejo volver e nos envie!

      Toque também

      1. Imagem do artista AméricoA Llorar a Otra Parte Américo
      2. Imagem do artista Amar AzulYo tomo licor Amar Azul
      3. Imagem do artista Nene MaloAmigos con derecho Nene Malo
      4. Imagem do artista La NocheSe Apago Su Luz La Noche

      Entre para o Cifra Club PRO

      Tenha acesso a benefícios exclusivos no App e no Site

      • Chega de anúncios

      • Badges exclusivas

      • Mais recursos no app do Afinador

      • Atendimento Prioritário

      • Aumente seu limite de lista

      • Ajude a produzir mais conteúdo

      Cifra Club Pro

      Aproveite o Cifra Club com benefícios exclusivos e sem anúncios
      Cifra Club Pro
      Aproveite o Cifra Club com benefícios exclusivos e sem anúncios
      Ops (: Contenido disponible sólo en portugués.
      OK