Cifra Club

A Vida É Um Rio

Raffa Torres

Cifra: Principal (violão e guitarra)
tom: C#m (forma dos acordes no tom de Bm) Capotraste na 2ª casa
[Intro] G  D  A
        G  D  A  Bm7(11) 
        G  D  A

   G        D        A
E|------------------------------------------|
B|-----3--------3----2----------------------|
G|-------0----2---2-------------------------|
D|---0------0-------------------------------|
A|-------------------0----------------------|
E|-3----------------------------------------|

[Dedilhado Padrão]
 
   G     D     A     Bm7   G     D     A
E|---x-----x-----x-----x-----x-----x--------|
B|-3-x---3-x---2-x---3-x---3-x---3-x---2----|
G|-0-x---2-x-----x---2-x---0-x---2-x--------|
D|-0-x-x-0-x-x---x-x-0-x-x-0-x-x-0-x-x------|
A|---x-----x---0-x---2-x-----x-----x---0----|
E|-3-x-----x-----x-----x---3-x-----x--------|

[Guitarra]

E|------------------5\2---------------------|
B|-----7/8--7\5-3/5----------7/8--7\5-3/5---|
G|------------------------------------------|
D|-5/7-------------------5/7----------------|
A|------------------------------------------|
E|------------------------------------------|

[Primeira Parte]

             G  D
A vida é um rio
                  A  Bm7(11)
Estamos no mesmo barco
 G   D     A    Bm7(11)
Remaremos juntos
                   G  D
Pra onde vai esse rio
             A   Bm7(11)
Ainda não sabemos
      G   D     A    Bm7(11)
Mas, remaremos juntos

                G              D
Ainda temos estrelas pra alcançar
 A             Bm7(11)
Sonhos pra sonhar
  G      D    A  Bm7(11)
Flores pra regar
                      G        D 
Mas, precisamos fazer isso juntos
              A        Bm7(11)
E vamos fazer isso juntos

[Refrão]

      G  D 
Ô ô ô ô
                A        Bm7(11)
Não seremos os mesmos jamais
      G  D 
Ô ô ô ô
                  A            Bm7(11)
Se a gente falar menos e agir mais   

      G  D 
Ô ô ô ô
                A        Bm7(11)
Não seremos os mesmos jamais
      G  D 
Ô ô ô ô
                  A            Bm7(11)
Se a gente falar menos e agir mais   

[Solo] G  D  A  Bm7(11) 
       G  D  A 

E|-----------------5\2-----------------5h7p5|
B|-----7/8-7\5-3/5---------7/8-7\5-3/5------|
G|------------------------------------------|
D|-5/7-----------------5/7------------------|
A|------------------------------------------|
E|------------------------------------------|

[Primeira Parte]

             G  D
A vida é um rio
                  A  Bm7(11)
Estamos no mesmo barco
 G   D     A    Bm7(11)
Remaremos juntos
                   G  D
Pra onde vai esse rio
             A   Bm7(11)
Ainda não sabemos
      G   D     A    Bm7(11)
Mas, remaremos juntos

                G              D
Ainda temos estrelas pra alcançar
 A             Bm7(11)
Sonhos pra sonhar
  G      D    A  Bm7(11)
Flores pra regar
                      G        D 
Mas, precisamos fazer isso juntos
              A        Bm7(11)
E vamos fazer isso juntos

[Refrão]

      G  D 
Ô ô ô ô
                A        Bm7(11)
Não seremos os mesmos jamais
      G  D 
Ô ô ô ô
                  A            Bm7(11)
Se a gente falar menos e agir mais   

      G  D 
Ô ô ô ô
                A        Bm7(11)
Não seremos os mesmos jamais
      G  D 
Ô ô ô ô
                  A            Bm7(11)
Se a gente falar menos e agir mais 

( G  D  A  Bm7(11) )
( G  D  A )  

[Primeira Parte]

             G  D
A vida é um rio
                  A  Bm7(11)
Estamos no mesmo barco
 G   D     A    Bm7(11)
Remaremos juntos
00:00 / 00:00
Outros vídeos desta música
Repetir
Outros vídeos desta música
Composição de Bruno Caliman / Lucas Santos / Raffa Torres
Colaboração e revisão:
  • Thiago Almeida
  • Eduardo Estrada
138.572 exibições
    • ½ Tom
    • Am
    • Bbm
    • Bm
    • Cm
    • C#m
    • Dm
    • Ebm
    • Em
    • Fm
    • F#m
    • Gm
    • G#m
  • Adicionar à lista

    0 comentários

    Ver todos os comentários

    Entre para oCifra Club PRO

    Tenha acesso a benefícios exclusivos no App e no Site

    • Chega de anúncios

    • Prioridade de compra em lançamentos

    • Mais recursos no app do Afinador

    • Atendimento Prioritário

    • Descontos nos produtos Cifra Club

    • Ajude a produzir mais conteúdo

    00:00 / 00:00

    Cifra Club Pro

    Aproveite o Cifra Club com benefícios exclusivos e sem anúncios
    Cifra Club Pro
    Aproveite o Cifra Club com benefícios exclusivos e sem anúncios
    OK